  0
SECTION
  2
HEADER
  9
$ACADVER
  1
AC1014
  9
$ACADMAINTVER
 70
     9
  9
$DWGCODEPAGE
  3
ANSI_1252
  9
$INSBASE
 10
0.0
 20
0.0
 30
0.0
  9
$EXTMIN
 10
1553.753959982858
 20
999.2795383085286
 30
0.0
  9
$EXTMAX
 10
1568.513933966788
 20
1015.381003050331
 30
0.0
  9
$LIMMIN
 10
0.0
 20
0.0
  9
$LIMMAX
 10
4800.0
 20
3600.0
  9
$ORTHOMODE
 70
     0
  9
$REGENMODE
 70
     1
  9
$FILLMODE
 70
     1
  9
$QTEXTMODE
 70
     0
  9
$MIRRTEXT
 70
     0
  9
$DRAGMODE
 70
     2
  9
$LTSCALE
 40
2.0
  9
$OSMODE
 70
    37
  9
$ATTMODE
 70
     1
  9
$TEXTSIZE
 40
4.5
  9
$TRACEWID
 40
0.05
  9
$TEXTSTYLE
  7
ROMANS
  9
$CLAYER
  8
DEFPOINTS
  9
$CELTYPE
  6
BYLAYER
  9
$CECOLOR
 62
   256
  9
$CELTSCALE
 40
1.0
  9
$DELOBJ
 70
     1
  9
$DISPSILH
 70
     0
  9
$DIMSCALE
 40
2.0
  9
$DIMASZ
 40
0.125
  9
$DIMEXO
 40
0.0625
  9
$DIMDLI
 40
0.0625
  9
$DIMRND
 40
0.0
  9
$DIMDLE
 40
0.0625
  9
$DIMEXE
 40
0.0625
  9
$DIMTP
 40
0.0
  9
$DIMTM
 40
0.0
  9
$DIMTXT
 40
0.09375
  9
$DIMCEN
 40
0.0625
  9
$DIMTSZ
 40
0.0
  9
$DIMTOL
 70
     0
  9
$DIMLIM
 70
     0
  9
$DIMTIH
 70
     0
  9
$DIMTOH
 70
     0
  9
$DIMSE1
 70
     0
  9
$DIMSE2
 70
     0
  9
$DIMTAD
 70
     1
  9
$DIMZIN
 70
     3
  9
$DIMBLK
  1

  9
$DIMASO
 70
     1
  9
$DIMSHO
 70
     1
  9
$DIMPOST
  1

  9
$DIMAPOST
  1

  9
$DIMALT
 70
     0
  9
$DIMALTD
 70
     2
  9
$DIMALTF
 40
25.4
  9
$DIMLFAC
 40
1.0
  9
$DIMTOFL
 70
     0
  9
$DIMTVP
 40
0.0
  9
$DIMTIX
 70
     0
  9
$DIMSOXD
 70
     0
  9
$DIMSAH
 70
     1
  9
$DIMBLK1
  1
ARCHTICK
  9
$DIMBLK2
  1
ARCHTICK
  9
$DIMSTYLE
  2
DIM-1
  9
$DIMCLRD
 70
     0
  9
$DIMCLRE
 70
     0
  9
$DIMCLRT
 70
     0
  9
$DIMTFAC
 40
1.0
  9
$DIMGAP
 40
0.0625
  9
$DIMJUST
 70
     0
  9
$DIMSD1
 70
     0
  9
$DIMSD2
 70
     0
  9
$DIMTOLJ
 70
     1
  9
$DIMTZIN
 70
     0
  9
$DIMALTZ
 70
     0
  9
$DIMALTTZ
 70
     0
  9
$DIMFIT
 70
     5
  9
$DIMUPT
 70
     0
  9
$DIMUNIT
 70
     4
  9
$DIMDEC
 70
     4
  9
$DIMTDEC
 70
     4
  9
$DIMALTU
 70
     2
  9
$DIMALTTD
 70
     2
  9
$DIMTXSTY
  7
ROMANS
  9
$DIMAUNIT
 70
     0
  9
$LUNITS
 70
     4
  9
$LUPREC
 70
     4
  9
$SKETCHINC
 40
0.1
  9
$FILLETRAD
 40
0.0
  9
$AUNITS
 70
     0
  9
$AUPREC
 70
     0
  9
$MENU
  1
.
  9
$ELEVATION
 40
0.0
  9
$PELEVATION
 40
0.0
  9
$THICKNESS
 40
0.0
  9
$LIMCHECK
 70
     0
  9
$CHAMFERA
 40
0.0
  9
$CHAMFERB
 40
0.0
  9
$CHAMFERC
 40
1.0
  9
$CHAMFERD
 40
0.0
  9
$SKPOLY
 70
     0
  9
$TDCREATE
 40
2455134.40969816
  9
$TDUPDATE
 40
2455169.644298854
  9
$TDINDWG
 40
0.1399697685
  9
$TDUSRTIMER
 40
0.1399690509
  9
$USRTIMER
 70
     1
  9
$ANGBASE
 50
0.0
  9
$ANGDIR
 70
     0
  9
$PDMODE
 70
    34
  9
$PDSIZE
 40
0.0
  9
$PLINEWID
 40
0.0
  9
$COORDS
 70
     1
  9
$SPLFRAME
 70
     0
  9
$SPLINETYPE
 70
     6
  9
$SPLINESEGS
 70
     8
  9
$ATTDIA
 70
     0
  9
$ATTREQ
 70
     1
  9
$HANDLING
 70
     1
  9
$HANDSEED
  5
4328
  9
$SURFTAB1
 70
     6
  9
$SURFTAB2
 70
     6
  9
$SURFTYPE
 70
     6
  9
$SURFU
 70
     6
  9
$SURFV
 70
     6
  9
$UCSNAME
  2

  9
$UCSORG
 10
0.0
 20
0.0
 30
0.0
  9
$UCSXDIR
 10
1.0
 20
0.0
 30
0.0
  9
$UCSYDIR
 10
0.0
 20
1.0
 30
0.0
  9
$PUCSNAME
  2

  9
$PUCSORG
 10
0.0
 20
0.0
 30
0.0
  9
$PUCSXDIR
 10
1.0
 20
0.0
 30
0.0
  9
$PUCSYDIR
 10
0.0
 20
1.0
 30
0.0
  9
$USERI1
 70
     0
  9
$USERI2
 70
     0
  9
$USERI3
 70
     0
  9
$USERI4
 70
     0
  9
$USERI5
 70
     0
  9
$USERR1
 40
0.0
  9
$USERR2
 40
0.0
  9
$USERR3
 40
0.0
  9
$USERR4
 40
0.0
  9
$USERR5
 40
0.0
  9
$WORLDVIEW
 70
     1
  9
$SHADEDGE
 70
     3
  9
$SHADEDIF
 70
    70
  9
$TILEMODE
 70
     0
  9
$MAXACTVP
 70
    48
  9
$PINSBASE
 10
0.0
 20
0.0
 30
0.0
  9
$PLIMCHECK
 70
     0
  9
$PEXTMIN
 10
-0.0000000000000002
 20
-0.0000000000000053
 30
0.0
  9
$PEXTMAX
 10
8.500000000000002
 20
11.0
 30
0.0
  9
$PLIMMIN
 10
0.0562725145632888
 20
0.0690491114654651
  9
$PLIMMAX
 10
8.447017216265106
 20
10.92765997166995
  9
$UNITMODE
 70
     0
  9
$VISRETAIN
 70
     1
  9
$PLINEGEN
 70
     0
  9
$PSLTSCALE
 70
     0
  9
$TREEDEPTH
 70
  3020
  9
$PICKSTYLE
 70
     1
  9
$CMLSTYLE
  2
STANDARD
  9
$CMLJUST
 70
     0
  9
$CMLSCALE
 40
1.0
  9
$PROXYGRAPHICS
 70
     1
  9
$MEASUREMENT
 70
     0
  0
ENDSEC
  0
SECTION
  2
CLASSES
  0
CLASS
  1
LWPOLYLINE
  2
AcDbPolyline
  3
AutoCAD 2000
 90
        0
280
     0
281
     1
  0
CLASS
  1
XRECORD
  2
AcDbXrecord
  3
AutoCAD 2000
 90
        0
280
     0
281
     0
  0
CLASS
  1
ACDBDICTIONARYWDFLT
  2
AcDbDictionaryWithDefault
  3
ObjectDBX Classes
 90
        0
280
     0
281
     0
  0
CLASS
  1
ACDBPLACEHOLDER
  2
AcDbPlaceHolder
  3
ObjectDBX Classes
 90
        0
280
     0
281
     0
  0
CLASS
  1
LAYOUT
  2
AcDbLayout
  3
ObjectDBX Classes
 90
        0
280
     0
281
     0
  0
CLASS
  1
DICTIONARYVAR
  2
AcDbDictionaryVar
  3
ObjectDBX Classes
 90
        0
280
     0
281
     0
  0
CLASS
  1
PLOTSETTINGS
  2
AcDbPlotSettings
  3
ObjectDBX Classes
 90
        0
280
     0
281
     0
  0
CLASS
  1
MATERIAL
  2
AcDbMaterial
  3
ObjectDBX Classes
 90
     1153
280
     0
281
     0
  0
CLASS
  1
VISUALSTYLE
  2
AcDbVisualStyle
  3
ObjectDBX Classes
 90
     4095
280
     0
281
     0
  0
CLASS
  1
TABLESTYLE
  2
AcDbTableStyle
  3
ObjectDBX Classes
 90
     4095
280
     0
281
     0
  0
CLASS
  1
SCALE
  2
AcDbScale
  3
ObjectDBX Classes
 90
     1153
280
     0
281
     0
  0
CLASS
  1
MLEADERSTYLE
  2
AcDbMLeaderStyle
  3
ACDB_MLEADERSTYLE_CLASS
 90
     4095
280
     0
281
     0
  0
CLASS
  1
EXACXREFPANELOBJECT
  2
ExAcXREFPanelObject
  3
EXAC_ESW
 90
     1025
280
     1
281
     0
  0
CLASS
  1
NPOCOLLECTION
  2
AcDbImpNonPersistentObjectsCollection
  3
ObjectDBX Classes
 90
     1153
280
     1
281
     0
  0
CLASS
  1
CELLSTYLEMAP
  2
AcDbCellStyleMap
  3
ObjectDBX Classes
 90
     1152
280
     0
281
     0
  0
CLASS
  1
SORTENTSTABLE
  2
AcDbSortentsTable
  3
ObjectDBX Classes
 90
        0
280
     0
281
     0
  0
CLASS
  1
RASTERVARIABLES
  2
AcDbRasterVariables
  3
ISM
 90
        0
280
     0
281
     0
  0
CLASS
  1
IMAGEDEF
  2
AcDbRasterImageDef
  3
ISM
 90
        0
280
     0
281
     0
  0
CLASS
  1
IMAGEDEF_REACTOR
  2
AcDbRasterImageDefReactor
  3
ISM
 90
        1
280
     0
281
     0
  0
CLASS
  1
IMAGE
  2
AcDbRasterImage
  3
ISM
 90
      127
280
     0
281
     1
  0
CLASS
  1
HATCH
  2
AcDbHatch
  3
AutoCAD 2000
 90
        0
280
     0
281
     1
  0
ENDSEC
  0
SECTION
  2
TABLES
  0
TABLE
  2
VPORT
  5
8
102
{ACAD_XDICTIONARY
360
4320
102
}
330
0
100
AcDbSymbolTable
 70
     1
  0
VPORT
  5
2389
330
8
100
AcDbSymbolTableRecord
100
AcDbViewportTableRecord
  2
*ACTIVE
 70
     0
 10
0.0
 20
0.0
 11
1.0
 21
1.0
 12
1562.553379123982
 22
1007.396273816139
 13
0.0
 23
0.0
 14
2.0
 24
2.0
 15
0.5
 25
0.5
 16
0.0
 26
0.0
 36
1.0
 17
0.0
 27
0.0
 37
0.0
 40
18.64206748619188
 41
2.090314136125655
 42
50.0
 43
0.0
 44
0.0
 50
0.0
 51
0.0
 71
     0
 72
  5000
 73
     1
 74
     0
 75
     0
 76
     0
 77
     0
 78
     0
  0
ENDTAB
  0
TABLE
  2
LTYPE
  5
5
330
0
100
AcDbSymbolTable
 70
     2
  0
LTYPE
  5
12
330
5
100
AcDbSymbolTableRecord
100
AcDbLinetypeTableRecord
  2
BYBLOCK
 70
     0
  3

 72
    65
 73
     0
 40
0.0
  0
LTYPE
  5
13
330
5
100
AcDbSymbolTableRecord
100
AcDbLinetypeTableRecord
  2
BYLAYER
 70
     0
  3

 72
    65
 73
     0
 40
0.0
  0
LTYPE
  5
14
330
5
100
AcDbSymbolTableRecord
100
AcDbLinetypeTableRecord
  2
CONTINUOUS
 70
     0
  3
Solid line
 72
    65
 73
     0
 40
0.0
  0
LTYPE
  5
53
330
5
100
AcDbSymbolTableRecord
100
AcDbLinetypeTableRecord
  2
HIDDEN2
 70
     0
  3
Hidden (.5x) _ _ _ _ _ _ _ _ _ _ _ _ _ _ _ _ _
 72
    65
 73
     2
 40
0.1875
 49
0.125
 74
     0
 49
-0.0625
 74
     0
  0
ENDTAB
  0
TABLE
  2
LAYER
  5
2
102
{ACAD_XDICTIONARY
360
C90
102
}
330
0
100
AcDbSymbolTable
 70
    19
  0
LAYER
  5
E
330
2
100
AcDbSymbolTableRecord
100
AcDbLayerTableRecord
  2
0
 70
     0
 62
     7
  6
CONTINUOUS
1001
RAK
1000
{ACAD
1070
     0
1070
     7
1000
CONTINUOUS
1000
ACAD}
  0
LAYER
  5
26
330
2
100
AcDbSymbolTableRecord
100
AcDbLayerTableRecord
  2
DEFPOINTS
 70
     0
 62
     7
  6
CONTINUOUS
1001
RAK
1000
{ACAD
1070
     0
1070
     7
1000
CONTINUOUS
1000
ACAD}
  0
LAYER
  5
2B
330
2
100
AcDbSymbolTableRecord
100
AcDbLayerTableRecord
  2
A-NOTE
 70
     0
 62
     4
  6
CONTINUOUS
1001
RAK
1000
{ACAD
1070
     0
1070
     4
1000
CONTINUOUS
1000
ACAD}
  0
LAYER
  5
39
330
2
100
AcDbSymbolTableRecord
100
AcDbLayerTableRecord
  2
A-TITLE
 70
     0
 62
     1
  6
CONTINUOUS
1001
RAK
1000
{ACAD
1070
     0
1070
     1
1000
CONTINUOUS
1000
ACAD}
  0
LAYER
  5
A21
330
2
100
AcDbSymbolTableRecord
100
AcDbLayerTableRecord
  2
A-HATCH
 70
     0
 62
     3
  6
CONTINUOUS
  0
LAYER
  5
24B6
330
2
100
AcDbSymbolTableRecord
100
AcDbLayerTableRecord
  2
A1
 70
     0
 62
     1
  6
CONTINUOUS
  0
LAYER
  5
2B9C
330
2
100
AcDbSymbolTableRecord
100
AcDbLayerTableRecord
  2
A-BRICK
 70
     0
 62
     7
  6
CONTINUOUS
1001
ACAECLAYERSTANDARD
1000

1000

  0
LAYER
  5
2C64
330
2
100
AcDbSymbolTableRecord
100
AcDbLayerTableRecord
  2
A-MORTAR
 70
     0
 62
     2
  6
CONTINUOUS
1001
ACAECLAYERSTANDARD
1000

1000

  0
LAYER
  5
36CD
330
2
100
AcDbSymbolTableRecord
100
AcDbLayerTableRecord
  2
A-GRADE
 70
     0
 62
     7
  6
CONTINUOUS
1001
ACAECLAYERSTANDARD
1000

1000

  0
LAYER
  5
3EB9
330
2
100
AcDbSymbolTableRecord
100
AcDbLayerTableRecord
  2
A-MTL_GRID
 70
     0
 62
     7
  6
CONTINUOUS
1001
ACAECLAYERSTANDARD
1000

1000

  0
LAYER
  5
3EBA
330
2
100
AcDbSymbolTableRecord
100
AcDbLayerTableRecord
  2
A-BACKING
 70
     0
 62
     3
  6
CONTINUOUS
1001
ACAECLAYERSTANDARD
1000

1000

  0
ENDTAB
  0
TABLE
  2
STYLE
  5
3
330
0
100
AcDbSymbolTable
 70
     4
  0
STYLE
  5
F
330
3
100
AcDbSymbolTableRecord
100
AcDbTextStyleTableRecord
  2
STANDARD
 70
     0
 40
0.0
 41
1.0
 50
0.0
 71
     0
 42
0.2
  3
romans.shx
  4

  0
STYLE
  5
5E
330
3
100
AcDbSymbolTableRecord
100
AcDbTextStyleTableRecord
  2
ROMANS
 70
     0
 40
0.0
 41
0.8
 50
0.0
 71
     0
 42
4.5
  3
romans.shx
  4

  0
STYLE
  5
24BC
330
3
100
AcDbSymbolTableRecord
100
AcDbTextStyleTableRecord
  2
A
 70
     0
 40
0.0
 41
0.8
 50
0.0
 71
     0
 42
0.25
  3
ARIAL.TTF
  4

1001
ACAD
1000
Arial
1071
       34
  0
STYLE
  5
24BE
330
3
100
AcDbSymbolTableRecord
100
AcDbTextStyleTableRecord
  2
ROMANT
 70
     0
 40
0.0
 41
1.0
 50
0.0
 71
     0
 42
0.09375
  3
ROMANT.SHX
  4

  0
ENDTAB
  0
TABLE
  2
VIEW
  5
6
330
0
100
AcDbSymbolTable
 70
     0
  0
ENDTAB
  0
TABLE
  2
UCS
  5
7
330
0
100
AcDbSymbolTable
 70
     0
  0
ENDTAB
  0
TABLE
  2
APPID
  5
9
330
0
100
AcDbSymbolTable
 70
    14
  0
APPID
  5
10
330
9
100
AcDbSymbolTableRecord
100
AcDbRegAppTableRecord
  2
ACAD
 70
     0
  0
APPID
  5
20
330
9
100
AcDbSymbolTableRecord
100
AcDbRegAppTableRecord
  2
RAK
 70
     0
  0
APPID
  5
63
330
9
100
AcDbSymbolTableRecord
100
AcDbRegAppTableRecord
  2
_KTI_ARCHT
 70
     0
  0
APPID
  5
15A
330
9
100
AcDbSymbolTableRecord
100
AcDbRegAppTableRecord
  2
ABNSLEADERTOOLS
 70
     0
  0
APPID
  5
2090
330
9
100
AcDbSymbolTableRecord
100
AcDbRegAppTableRecord
  2
ACAD_MLEADERVER
 70
     0
  0
APPID
  5
2287
330
9
100
AcDbSymbolTableRecord
100
AcDbRegAppTableRecord
  2
ACAD_EXEMPT_FROM_CAD_STAND
 70
     0
  0
APPID
  5
26FE
330
9
100
AcDbSymbolTableRecord
100
AcDbRegAppTableRecord
  2
ACAD_PSEXT
 70
     0
  0
APPID
  5
2AAF
330
9
100
AcDbSymbolTableRecord
100
AcDbRegAppTableRecord
  2
ACAECLAYERSTANDARD
 70
     0
  0
APPID
  5
2AB0
330
9
100
AcDbSymbolTableRecord
100
AcDbRegAppTableRecord
  2
ACDBDYNAMICBLOCKTRUENAME
 70
     0
  0
APPID
  5
2AB1
330
9
100
AcDbSymbolTableRecord
100
AcDbRegAppTableRecord
  2
ACDBBLOCKREPETAG
 70
     0
  0
APPID
  5
2BB3
330
9
100
AcDbSymbolTableRecord
100
AcDbRegAppTableRecord
  2
ACAD_DSTYLE_DIMJAG
 70
     0
  0
APPID
  5
2BB4
330
9
100
AcDbSymbolTableRecord
100
AcDbRegAppTableRecord
  2
ACAD_DSTYLE_DIMBREAK
 70
     0
  0
APPID
  5
2BB5
330
9
100
AcDbSymbolTableRecord
100
AcDbRegAppTableRecord
  2
ACAD_DSTYLE_DIMTALN
 70
     0
  0
APPID
  5
3EBB
330
9
100
AcDbSymbolTableRecord
100
AcDbRegAppTableRecord
  2
ACLAYERTOOLS
 70
     0
  0
ENDTAB
  0
TABLE
  2
DIMSTYLE
  5
A
330
0
100
AcDbSymbolTable
 70
     2
  0
DIMSTYLE
105
1D
330
A
100
AcDbSymbolTableRecord
100
AcDbDimStyleTableRecord
  2
STANDARD
 70
     0
  3

  4

  5

  6

  7

 40
1.0
 41
0.18
 42
0.0625
 43
0.38
 44
0.18
 45
0.0
 46
0.0
 47
0.0
 48
0.0
140
0.18
141
0.09
142
0.0
143
25.4
144
1.0
145
0.0
146
1.0
147
0.09
 71
     0
 72
     0
 73
     1
 74
     1
 75
     0
 76
     0
 77
     0
 78
     0
170
     0
171
     2
172
     0
173
     0
174
     0
175
     0
176
     0
177
     0
178
     0
270
     2
271
     4
272
     4
273
     2
274
     2
340
F
275
     0
280
     0
281
     0
282
     0
283
     1
284
     0
285
     0
286
     0
287
     3
288
     0
  0
DIMSTYLE
105
2BB6
102
{ACAD_REACTORS
330
3533
330
3535
330
3596
330
3597
330
3598
330
37D9
330
38A7
330
3906
330
3C89
330
3C8A
330
3C8C
102
}
330
A
100
AcDbSymbolTableRecord
100
AcDbDimStyleTableRecord
  2
DIM-1
 70
     0
  3

  4

  5

  6
ARCHTICK
  7
ARCHTICK
 40
2.0
 41
0.125
 42
0.0625
 43
0.0625
 44
0.0625
 45
0.0
 46
0.0625
 47
0.0
 48
0.0
140
0.09375
141
0.0625
142
0.0
143
25.4
144
1.0
145
0.0
146
1.0
147
0.0625
 71
     0
 72
     0
 73
     0
 74
     0
 75
     0
 76
     0
 77
     1
 78
     3
170
     0
171
     2
172
     0
173
     1
174
     0
175
     0
176
     0
177
     0
178
     0
270
     4
271
     4
272
     4
273
     2
274
     2
340
5E
275
     0
280
     0
281
     0
282
     0
283
     1
284
     0
285
     0
286
     0
287
     5
288
     0
1001
ACAD_DSTYLE_DIMBREAK
1070
   391
1040
0.125
1001
ACAD_DSTYLE_DIMJAG
1070
   388
1040
1.5
1001
ACAD_DSTYLE_DIMTALN
1070
   392
1070
     0
  0
ENDTAB
  0
TABLE
  2
BLOCK_RECORD
  5
1
330
0
100
AcDbSymbolTable
 70
     1
  0
BLOCK_RECORD
  5
18
102
{ACAD_XDICTIONARY
360
2283
102
}
330
1
100
AcDbSymbolTableRecord
100
AcDbBlockTableRecord
  2
*MODEL_SPACE
  0
BLOCK_RECORD
  5
15
102
{ACAD_XDICTIONARY
360
378F
102
}
330
1
100
AcDbSymbolTableRecord
100
AcDbBlockTableRecord
  2
*PAPER_SPACE
  0
BLOCK_RECORD
  5
55
330
1
100
AcDbSymbolTableRecord
100
AcDbBlockTableRecord
  2
_ARCHTICK
  0
ENDTAB
  0
ENDSEC
  0
SECTION
  2
BLOCKS
  0
BLOCK
  5
19
330
18
100
AcDbEntity
  8
0
100
AcDbBlockBegin
  2
*MODEL_SPACE
 70
     0
 10
0.0
 20
0.0
 30
0.0
  3
*MODEL_SPACE
  1

  0
ENDBLK
  5
1A
330
18
100
AcDbEntity
  8
0
100
AcDbBlockEnd
  0
BLOCK
  5
16
330
15
100
AcDbEntity
 67
     1
  8
0
100
AcDbBlockBegin
  2
*PAPER_SPACE
 70
     0
 10
0.0
 20
0.0
 30
0.0
  3
*PAPER_SPACE
  1

  0
ENDBLK
  5
17
330
15
100
AcDbEntity
 67
     1
  8
0
100
AcDbBlockEnd
  0
BLOCK
  5
56
330
55
100
AcDbEntity
  8
0
100
AcDbBlockBegin
  2
_ARCHTICK
 70
     0
 10
0.0
 20
0.0
 30
0.0
  3
_ARCHTICK
  1

  0
LWPOLYLINE
  5
57
330
55
100
AcDbEntity
  8
0
  6
BYBLOCK
 62
     0
100
AcDbPolyline
 90
        2
 70
     0
 43
0.15
 10
-0.5
 20
-0.5
 10
0.5
 20
0.5
  0
ENDBLK
  5
5B
330
55
100
AcDbEntity
  8
0
100
AcDbBlockEnd
  0
ENDSEC
  0
SECTION
  2
ENTITIES
  0
LWPOLYLINE
  5
2B9B
102
{ACAD_REACTORS
330
2BA5
102
}
330
18
100
AcDbEntity
  8
A-BRICK
100
AcDbPolyline
 90
        5
 70
     0
 43
0.0
 10
1564.43894127526
 20
1003.990271048571
 10
1564.43894127526
 20
1001.740271048571
 10
1564.93894127526
 20
1001.740271048571
 10
1564.93894127526
 20
1003.990271048571
 10
1564.43894127526
 20
1003.990271048571
  0
HATCH
  5
2BA5
330
18
100
AcDbEntity
  8
A-HATCH
100
AcDbHatch
 10
0.0
 20
0.0
 30
0.0
210
0.0
220
0.0
230
1.0
  2
ANSI31
 70
     0
 71
     1
 91
        1
 92
        1
 93
        4
 72
     1
 10
1564.43894127526
 20
1003.990271048571
 11
1564.43894127526
 21
1001.740271048571
 72
     1
 10
1564.43894127526
 20
1001.740271048571
 11
1564.93894127526
 21
1001.740271048571
 72
     1
 10
1564.93894127526
 20
1001.740271048571
 11
1564.93894127526
 21
1003.990271048571
 72
     1
 10
1564.93894127526
 20
1003.990271048571
 11
1564.43894127526
 21
1003.990271048571
 97
        1
330
2B9B
 75
     0
 76
     1
 52
0.0
 41
2.0
 77
     0
 78
     1
 53
45.0
 43
1562.821539455536
 44
1000.141369076456
 45
-0.1767766952966369
 46
0.1767766952966369
 79
     0
 98
        1
 10
2.883565089962076
 20
1.004020686480544
1001
ACAD
1010
1561.555376185298
1020
1000.73625036209
1030
0.0
  0
HATCH
  5
2BEB
330
18
100
AcDbEntity
  8
A-HATCH
100
AcDbHatch
 10
0.0
 20
0.0
 30
0.0
210
0.0
220
0.0
230
1.0
  2
ANSI31
 70
     0
 71
     1
 91
        1
 92
        1
 93
        4
 72
     1
 10
1564.43894127526
 20
1006.865271048571
 11
1564.43894127526
 21
1004.615271048571
 72
     1
 10
1564.43894127526
 20
1004.615271048571
 11
1564.93894127526
 21
1004.615271048571
 72
     1
 10
1564.93894127526
 20
1004.615271048571
 11
1564.93894127526
 21
1006.865271048571
 72
     1
 10
1564.93894127526
 20
1006.865271048571
 11
1564.43894127526
 21
1006.865271048571
 97
        1
330
2BEC
 75
     0
 76
     1
 52
0.0
 41
2.0
 77
     0
 78
     1
 53
45.0
 43
1562.821539455536
 44
1000.141369076456
 45
-0.1767766952966369
 46
0.1767766952966369
 79
     0
 98
        1
 10
2.883565089962076
 20
3.87902068648043
1001
ACAD
1010
1561.555376185298
1020
1000.73625036209
1030
0.0
  0
LWPOLYLINE
  5
2BEC
102
{ACAD_REACTORS
330
2BEB
102
}
330
18
100
AcDbEntity
  8
A-BRICK
100
AcDbPolyline
 90
        5
 70
     0
 43
0.0
 10
1564.43894127526
 20
1006.865271048571
 10
1564.43894127526
 20
1004.615271048571
 10
1564.93894127526
 20
1004.615271048571
 10
1564.93894127526
 20
1006.865271048571
 10
1564.43894127526
 20
1006.865271048571
  0
HATCH
  5
2BED
330
18
100
AcDbEntity
  8
A-HATCH
100
AcDbHatch
 10
0.0
 20
0.0
 30
0.0
210
0.0
220
0.0
230
1.0
  2
ANSI31
 70
     0
 71
     1
 91
        1
 92
        1
 93
        4
 72
     1
 10
1564.438941275258
 20
1009.740271048571
 11
1564.438941275258
 21
1007.490271048571
 72
     1
 10
1564.438941275258
 20
1007.490271048571
 11
1564.938941275258
 21
1007.490271048571
 72
     1
 10
1564.938941275258
 20
1007.490271048571
 11
1564.938941275258
 21
1009.740271048571
 72
     1
 10
1564.938941275258
 20
1009.740271048571
 11
1564.438941275258
 21
1009.740271048571
 97
        1
330
2BEE
 75
     0
 76
     1
 52
0.0
 41
2.0
 77
     0
 78
     1
 53
45.0
 43
1562.821539455536
 44
1000.141369076456
 45
-0.1767766952966369
 46
0.1767766952966369
 79
     0
 98
        1
 10
2.883565089960257
 20
6.754020686480771
1001
ACAD
1010
1561.555376185298
1020
1000.73625036209
1030
0.0
  0
LWPOLYLINE
  5
2BEE
102
{ACAD_REACTORS
330
2BED
102
}
330
18
100
AcDbEntity
  8
A-BRICK
100
AcDbPolyline
 90
        5
 70
     0
 43
0.0
 10
1564.438941275258
 20
1009.740271048571
 10
1564.438941275258
 20
1007.490271048571
 10
1564.938941275258
 20
1007.490271048571
 10
1564.938941275258
 20
1009.740271048571
 10
1564.438941275258
 20
1009.740271048571
  0
HATCH
  5
2BF0
330
18
100
AcDbEntity
  8
A-HATCH
100
AcDbHatch
 10
0.0
 20
0.0
 30
0.0
210
0.0
220
0.0
230
1.0
  2
ANSI31
 70
     0
 71
     0
 91
        1
 92
        7
 72
     0
 73
     1
 93
        4
 10
1564.938941275258
 20
1011.236397955226
 10
1564.438941275258
 20
1011.236397955226
 10
1564.438941275258
 20
1010.365271048571
 10
1564.938941275258
 20
1010.365271048571
 97
        0
 75
     0
 76
     1
 52
0.0
 41
2.0
 77
     0
 78
     1
 53
45.0
 43
1562.821539455536
 44
1000.141369076456
 45
-0.1767766952966369
 46
0.1767766952966369
 79
     0
 47
0.0
 98
        1
 10
1564.688941275258
 20
1010.800834501898
1001
ACAD
1010
1561.555376185298
1020
1000.73625036209
1030
0.0
  0
LWPOLYLINE
  5
2BF1
330
18
100
AcDbEntity
  8
A-BRICK
100
AcDbPolyline
 90
        4
 70
     0
 43
0.0
 10
1564.438941275258
 20
1011.236397955226
 10
1564.438941275258
 20
1010.365271048571
 10
1564.938941275258
 20
1010.365271048571
 10
1564.938941275258
 20
1011.236397955226
  0
LINE
  5
2BF7
330
18
100
AcDbEntity
  8
A-NOTE
100
AcDbLine
 10
1564.289092992497
 20
1011.236397955226
 30
0.0
 11
1566.052729775551
 21
1011.236397955226
 31
0.0
  0
LINE
  5
2C07
330
18
100
AcDbEntity
  8
A-NOTE
100
AcDbLine
 10
1566.052729775551
 20
1011.236397955226
 30
0.0
 11
1566.052729775551
 21
1011.150417718511
 31
0.0
  0
LINE
  5
2C08
330
18
100
AcDbEntity
  8
A-NOTE
100
AcDbLine
 10
1566.144973136064
 20
1011.123668914939
 30
0.0
 11
1566.287734834889
 21
1011.349126995512
 31
0.0
  0
LINE
  5
2C09
330
18
100
AcDbEntity
  8
A-NOTE
100
AcDbLine
 10
1566.379978195403
 20
1011.32237819194
 30
0.0
 11
1566.379978195403
 21
1011.236397955226
 31
0.0
  0
ARC
  5
2C0E
330
18
100
AcDbEntity
  8
A-NOTE
100
AcDbCircle
 10
1566.329978195403
 20
1011.32237819194
 30
0.0
 40
0.05
100
AcDbArc
 50
0.0
 51
147.6577113480785
  0
ARC
  5
2C0F
330
18
100
AcDbEntity
  8
A-NOTE
100
AcDbCircle
 10
1566.102729775551
 20
1011.150417718511
 30
0.0
 40
0.05
100
AcDbArc
 50
180.0
 51
327.6577113480578
  0
LINE
  5
2C10
330
18
100
AcDbEntity
  8
A-NOTE
100
AcDbLine
 10
1566.379978195403
 20
1011.236397955226
 30
0.0
 11
1567.604995286904
 21
1011.236397955226
 31
0.0
  0
LWPOLYLINE
  5
2C2B
330
18
100
AcDbEntity
  8
A-MTL_GRID
100
AcDbPolyline
 90
        5
 70
     0
 43
0.0
 10
1564.947082348599
 20
1011.236397955226
 10
1564.947082348599
 20
1010.365271048571
 10
1564.759582348599
 20
1010.365271048571
 42
0.9201328815660246
 10
1564.759582348599
 20
1010.271521048571
 10
1564.904035235012
 20
1010.27152104857
  0
LWPOLYLINE
  5
2C60
330
18
100
AcDbEntity
  8
A-MORTAR
100
AcDbPolyline
 90
        2
 70
     0
 43
0.0
 10
1564.438941275261
 20
1003.990271048571
 42
0.2316335912014004
 10
1564.43894127526
 20
1004.615271048571
  0
HATCH
  5
2C61
330
18
100
AcDbEntity
  8
DEFPOINTS
100
AcDbHatch
 10
0.0
 20
0.0
 30
0.0
210
0.0
220
0.0
230
1.0
  2
AR-SAND
 70
     0
 71
     0
 91
        1
 92
        1
 93
        6
 72
     1
 10
1557.337172703204
 20
1005.116402334205
 11
1557.337172703203
 21
1004.585152334205
 72
     1
 10
1557.337172703203
 20
1004.585152334205
 11
1556.829031629864
 21
1004.585152334205
 72
     2
 10
1556.19066763916
 20
1004.897652334205
 40
0.7107494879545938
 50
333.9167438996858
 51
386.0832561004044
 73
     1
 72
     1
 10
1556.829031629864
 20
1005.210152334205
 11
1557.149672703205
 21
1005.210152334205
 72
     2
 10
1557.153578953204
 20
1005.163277334205
 40
0.0470374788234641
 50
94.76364168988665
 51
265.2363583087218
 73
     1
 72
     1
 10
1557.149672703204
 20
1005.116402334205
 11
1557.337172703204
 21
1005.116402334205
 97
        0
 75
     0
 76
     1
 52
0.0
 41
1.0
 77
     0
 78
     4
 53
37.5
 43
1556.829031629864
 44
1004.585152334205
 45
-0.0629933581096082
 46
1.926823769013159
 79
     6
 49
0.0
 49
-1.52
 49
0.0
 49
-1.7
 49
0.0
 49
-1.625
 53
7.499999999999999
 43
1556.829031629864
 44
1004.585152334205
 45
1.769776705267727
 46
2.82214606522974
 79
     6
 49
0.0
 49
-0.82
 49
0.0
 49
-1.37
 49
0.0
 49
-0.525
 53
327.5
 43
1555.599031629864
 44
1004.585152334205
 45
3.114141861751495
 46
0.0056590535369645
 79
     6
 49
0.0
 49
-0.5
 49
0.0
 49
-1.8
 49
0.0
 49
-2.35
 53
317.5
 43
1555.599031629864
 44
1004.585152334205
 45
3.006126604572293
 46
0.8776755649342491
 79
     6
 49
0.0
 49
-0.25
 49
0.0
 49
-1.18
 49
0.0
 49
-1.35
 98
        1
 10
0.0
 20
0.0
1001
ACAD
1010
1556.829031629864
1020
1004.585152334205
1030
0.0
  0
HATCH
  5
2C62
330
18
100
AcDbEntity
  8
A-MORTAR
100
AcDbHatch
 10
0.0
 20
0.0
 30
0.0
210
0.0
220
0.0
230
1.0
  2
AR-SAND
 70
     0
 71
     0
 91
        1
 92
        1
 93
        6
 72
     1
 10
1564.9470823486
 20
1004.521521048571
 11
1564.947082348599
 21
1003.990271048571
 72
     1
 10
1564.947082348599
 20
1003.990271048571
 11
1564.438941275261
 21
1003.990271048571
 72
     2
 10
1563.800577284556
 20
1004.30277104857
 40
0.7107494879545938
 50
333.9167438996858
 51
386.0832561004044
 73
     1
 72
     1
 10
1564.43894127526
 20
1004.615271048571
 11
1564.759582348601
 21
1004.615271048571
 72
     2
 10
1564.7634885986
 20
1004.568396048571
 40
0.0470374788234641
 50
94.76364168988665
 51
265.2363583087218
 73
     1
 72
     1
 10
1564.7595823486
 20
1004.521521048571
 11
1564.9470823486
 21
1004.521521048571
 97
        0
 75
     0
 76
     1
 52
0.0
 41
0.1
 77
     0
 78
     4
 53
37.5
 43
1564.43894127526
 44
1003.990271048571
 45
-0.0062993358109608
 46
0.1926823769013159
 79
     6
 49
0.0
 49
-0.152
 49
0.0
 49
-0.17
 49
0.0
 49
-0.1625
 53
7.499999999999999
 43
1564.43894127526
 44
1003.990271048571
 45
0.1769776705267727
 46
0.282214606522974
 79
     6
 49
0.0
 49
-0.082
 49
0.0
 49
-0.137
 49
0.0
 49
-0.0525
 53
327.5
 43
1564.31594127526
 44
1003.990271048571
 45
0.3114141861751495
 46
0.0005659053536964
 79
     6
 49
0.0
 49
-0.05
 49
0.0
 49
-0.18
 49
0.0
 49
-0.235
 53
317.5
 43
1564.31594127526
 44
1003.990271048571
 45
0.3006126604572293
 46
0.0877675564934249
 79
     6
 49
0.0
 49
-0.025
 49
0.0
 49
-0.118
 49
0.0
 49
-0.135
 98
        1
 10
7.609909645396101
 20
-0.5948812856346422
1001
ACAD
1010
1556.829031629864
1020
1004.585152334205
1030
0.0
  0
HATCH
  5
2C67
330
18
100
AcDbEntity
  8
A-MORTAR
100
AcDbHatch
 10
0.0
 20
0.0
 30
0.0
210
0.0
220
0.0
230
1.0
  2
AR-SAND
 70
     0
 71
     0
 91
        1
 92
        1
 93
        6
 72
     1
 10
1564.9470823486
 20
1007.396521048571
 11
1564.947082348599
 21
1006.865271048571
 72
     1
 10
1564.947082348599
 20
1006.865271048571
 11
1564.438941275261
 21
1006.865271048571
 72
     2
 10
1563.800577284556
 20
1007.177771048571
 40
0.7107494879545938
 50
333.9167438996858
 51
386.0832561004044
 73
     1
 72
     1
 10
1564.43894127526
 20
1007.490271048571
 11
1564.759582348601
 21
1007.490271048571
 72
     2
 10
1564.7634885986
 20
1007.443396048571
 40
0.0470374788234641
 50
94.76364168988665
 51
265.2363583087218
 73
     1
 72
     1
 10
1564.7595823486
 20
1007.396521048571
 11
1564.9470823486
 21
1007.396521048571
 97
        0
 75
     0
 76
     1
 52
0.0
 41
0.1
 77
     0
 78
     4
 53
37.5
 43
1564.43894127526
 44
1006.865271048571
 45
-0.0062993358109608
 46
0.1926823769013159
 79
     6
 49
0.0
 49
-0.152
 49
0.0
 49
-0.17
 49
0.0
 49
-0.1625
 53
7.499999999999999
 43
1564.43894127526
 44
1006.865271048571
 45
0.1769776705267727
 46
0.282214606522974
 79
     6
 49
0.0
 49
-0.082
 49
0.0
 49
-0.137
 49
0.0
 49
-0.0525
 53
327.5
 43
1564.31594127526
 44
1006.865271048571
 45
0.3114141861751495
 46
0.0005659053536964
 79
     6
 49
0.0
 49
-0.05
 49
0.0
 49
-0.18
 49
0.0
 49
-0.235
 53
317.5
 43
1564.31594127526
 44
1006.865271048571
 45
0.3006126604572293
 46
0.0877675564934249
 79
     6
 49
0.0
 49
-0.025
 49
0.0
 49
-0.118
 49
0.0
 49
-0.135
 98
        1
 10
7.609909645396101
 20
2.280118714365699
1001
ACAD
1010
1556.829031629864
1020
1004.585152334205
1030
0.0
  0
LWPOLYLINE
  5
2C68
330
18
100
AcDbEntity
  8
A-MORTAR
100
AcDbPolyline
 90
        2
 70
     0
 43
0.0
 10
1564.438941275261
 20
1006.865271048571
 42
0.2316335912014004
 10
1564.43894127526
 20
1007.490271048571
  0
HATCH
  5
2C69
330
18
100
AcDbEntity
  8
A-MORTAR
100
AcDbHatch
 10
0.0
 20
0.0
 30
0.0
210
0.0
220
0.0
230
1.0
  2
AR-SAND
 70
     0
 71
     0
 91
        1
 92
        1
 93
        6
 72
     1
 10
1564.9470823486
 20
1010.271521048571
 11
1564.947082348599
 21
1009.740271048571
 72
     1
 10
1564.947082348599
 20
1009.740271048571
 11
1564.438941275261
 21
1009.740271048571
 72
     2
 10
1563.800577284556
 20
1010.05277104857
 40
0.7107494879545938
 50
333.9167438996858
 51
386.0832561004044
 73
     1
 72
     1
 10
1564.43894127526
 20
1010.365271048571
 11
1564.759582348601
 21
1010.365271048571
 72
     2
 10
1564.7634885986
 20
1010.318396048571
 40
0.0470374788234641
 50
94.76364168988665
 51
265.2363583087218
 73
     1
 72
     1
 10
1564.7595823486
 20
1010.271521048571
 11
1564.9470823486
 21
1010.271521048571
 97
        0
 75
     0
 76
     1
 52
0.0
 41
0.1
 77
     0
 78
     4
 53
37.5
 43
1564.43894127526
 44
1009.740271048571
 45
-0.0062993358109608
 46
0.1926823769013159
 79
     6
 49
0.0
 49
-0.152
 49
0.0
 49
-0.17
 49
0.0
 49
-0.1625
 53
7.499999999999999
 43
1564.43894127526
 44
1009.740271048571
 45
0.1769776705267727
 46
0.282214606522974
 79
     6
 49
0.0
 49
-0.082
 49
0.0
 49
-0.137
 49
0.0
 49
-0.0525
 53
327.5
 43
1564.31594127526
 44
1009.740271048571
 45
0.3114141861751495
 46
0.0005659053536964
 79
     6
 49
0.0
 49
-0.05
 49
0.0
 49
-0.18
 49
0.0
 49
-0.235
 53
317.5
 43
1564.31594127526
 44
1009.740271048571
 45
0.3006126604572293
 46
0.0877675564934249
 79
     6
 49
0.0
 49
-0.025
 49
0.0
 49
-0.118
 49
0.0
 49
-0.135
 98
        1
 10
7.609909645396101
 20
5.155118714365472
1001
ACAD
1010
1556.829031629864
1020
1004.585152334205
1030
0.0
  0
LWPOLYLINE
  5
2C6A
330
18
100
AcDbEntity
  8
A-MORTAR
100
AcDbPolyline
 90
        2
 70
     0
 43
0.0
 10
1564.438941275261
 20
1009.740271048571
 42
0.2316335912014004
 10
1564.43894127526
 20
1010.365271048571
  0
LINE
  5
2C6B
330
18
100
AcDbEntity
  8
A-BACKING
100
AcDbLine
 10
1565.197082348599
 20
1011.236397955226
 30
0.0
 11
1565.197082348599
 21
1001.490271048571
 31
0.0
  0
LINE
  5
2C6C
330
18
100
AcDbEntity
  8
A-BACKING
100
AcDbLine
 10
1565.272082348599
 20
1011.236397955226
 30
0.0
 11
1565.272082348599
 21
1001.146521048571
 31
0.0
  0
LINE
  5
2C6D
330
18
100
AcDbEntity
  8
A-BACKING
100
AcDbLine
 10
1565.272082348599
 20
1001.490271048571
 30
0.0
 11
1565.197082348599
 21
1001.490271048571
 31
0.0
  0
LINE
  5
2C6F
330
18
100
AcDbEntity
  8
A-BACKING
100
AcDbLine
 10
1565.197082348599
 20
1001.490271048571
 30
0.0
 11
1564.947082348599
 21
1001.490271048571
 31
0.0
  0
LINE
  5
2C70
330
18
100
AcDbEntity
  8
A-BACKING
100
AcDbLine
 10
1564.947082348599
 20
1001.490271048571
 30
0.0
 11
1564.947082348599
 21
1001.740271048571
 31
0.0
  0
LINE
  5
2C73
330
18
100
AcDbEntity
  8
A-BACKING
100
AcDbLine
 10
1565.272082348599
 20
1011.236397955226
 30
0.0
 11
1565.272082348599
 21
1000.907602164518
 31
0.0
  0
LINE
  5
2C77
330
18
100
AcDbEntity
  8
A-BACKING
100
AcDbLine
 10
1565.297837847023
 20
1011.236397955226
 30
0.0
 11
1565.297837847023
 21
999.3368254471894
 31
0.0
  0
LINE
  5
2C78
330
18
100
AcDbEntity
  8
A-GRADE
100
AcDbLine
 10
1559.729682695734
 20
999.9824439323748
 30
0.0
 11
1565.297837847023
 21
1000.240271048571
 31
0.0
  0
LINE
  5
2C7B
330
18
100
AcDbEntity
  8
A-HATCH
100
AcDbLine
 10
1565.297837847023
 20
1002.865271048571
 30
0.0
 11
1567.604995286903
 21
1002.865271048571
 31
0.0
  0
MTEXT
  5
34DE
330
18
100
AcDbEntity
  8
A-NOTE
100
AcDbMText
 10
1560.448005498597
 20
1012.595871294745
 30
0.0
 40
0.25
 41
2.547618775369983
 71
     1
 72
     5
  1
WEEP SYSTEM \P(OPTIONAL)-PVC
  7
ROMANS
  0
MTEXT
  5
3506
330
18
100
AcDbEntity
  8
A-NOTE
100
AcDbMText
 10
1566.181983131315
 20
1012.603379656542
 30
0.0
 40
0.25
 41
2.547618775369983
 71
     1
 72
     5
  1
MOISTURE BARRIER
  7
ROMANS
  0
MTEXT
  5
3507
330
18
100
AcDbEntity
  8
A-NOTE
100
AcDbMText
 10
1560.444510070266
 20
1003.638039662267
 30
0.0
 40
0.25
 41
3.81595263393865
 71
     1
 72
     5
  1
\A1;3/8" BEAD ADHESIVE \PTO PROVIDE MECHANICAL ATTACHMENT BETWEEN BRICK, GRID AND SUBSTRATE
  7
ROMANS
  0
MTEXT
  5
3508
330
18
100
AcDbEntity
  8
A-NOTE
100
AcDbMText
 10
1560.444762312691
 20
1007.171824432185
 30
0.0
 40
0.25
 41
3.229579997254859
 71
     1
 72
     5
  1
\A1;PATENTED METAL GRID PANEL
  7
ROMANS
  0
MTEXT
  5
3509
330
18
100
AcDbEntity
  8
A-NOTE
100
AcDbMText
 10
1560.457672326761
 20
1004.446786641359
 30
0.0
 40
0.25
 41
3.229579997254859
 71
     1
 72
     5
  1
\A1;BRICK-IT MORTAR
  7
ROMANS
  0
MTEXT
  5
350A
330
18
100
AcDbEntity
  8
A-NOTE
100
AcDbMText
 10
1560.440362476584
 20
1001.294986815962
 30
0.0
 40
0.25
 41
3.81595263393865
 71
     1
 72
     5
  1
\A1;MASONRY FOUNDATION
  7
ROMANS
  0
MTEXT
  5
350B
330
18
100
AcDbEntity
  8
A-NOTE
100
AcDbMText
 10
1560.437101140556
 20
1000.708533023747
 30
0.0
 40
0.25
 41
3.81595263393865
 71
     1
 72
     5
  1
\A1;FINISHED GRADE
  7
ROMANS
  0
LWPOLYLINE
  5
3511
330
18
100
AcDbEntity
  8
A-MTL_GRID
100
AcDbPolyline
 90
        4
 70
     1
 43
0.0
 10
1564.956709296152
 20
1009.505896048571
 10
1564.938941275258
 20
1009.505896048571
 10
1564.938941275258
 20
1009.130896048571
 10
1564.956709296152
 20
1009.130896048571
  0
LWPOLYLINE
  5
3512
330
18
100
AcDbEntity
  8
A-MTL_GRID
100
AcDbPolyline
 90
        4
 70
     1
 43
0.0
 10
1564.956709296152
 20
1006.630896048571
 10
1564.938941275258
 20
1006.630896048571
 10
1564.938941275258
 20
1006.255896048571
 10
1564.956709296152
 20
1006.255896048571
  0
LWPOLYLINE
  5
3514
330
18
100
AcDbEntity
  8
A-MTL_GRID
100
AcDbPolyline
 90
        4
 70
     1
 43
0.0
 10
1564.956709296152
 20
1003.755896048571
 10
1564.938941275258
 20
1003.755896048571
 10
1564.938941275258
 20
1003.380896048571
 10
1564.956709296152
 20
1003.380896048571
  0
LWPOLYLINE
  5
3515
330
18
100
AcDbEntity
  8
A-MTL_GRID
100
AcDbPolyline
 90
        5
 70
     0
 43
0.0
 10
1564.947082348599
 20
1003.380896048571
 10
1564.947082348599
 20
1001.740271048571
 10
1564.759582348599
 20
1001.740271048571
 42
0.9201328815660246
 10
1564.759582348599
 20
1001.646521048571
 10
1564.904035235012
 20
1001.646521048571
  0
CIRCLE
  5
3517
330
18
100
AcDbEntity
  8
A-NOTE
  6
HIDDEN2
100
AcDbCircle
 10
1564.763488598599
 20
1010.274582266146
 30
0.0
 40
0.7697738374422443
  0
LEADER
  5
3533
330
18
100
AcDbEntity
  8
A-NOTE
100
AcDbLeader
  3
DIM-1
 76
     3
 10
1565.127887074874
 20
1011.236397955226
 30
0.0
 10
1564.894715002783
 20
1012.003626403296
 30
0.0
 10
1562.98086224601
 20
1012.003626403296
 30
0.0
 77
   256
1001
ACAD
1000
DSTYLE
1002
{
1070
   341
1005
0
1070
     6
1000

1070
   147
1040
0.0625
1070
    77
1070
     0
1002
}
  0
LEADER
  5
3535
330
18
100
AcDbEntity
  8
A-NOTE
100
AcDbLeader
  3
DIM-1
 76
     3
 10
1565.289445617908
 20
1011.236397955226
 30
0.0
 10
1565.477196676127
 20
1012.026529954972
 30
0.0
 10
1566.05608742679
 20
1012.026529954972
 30
0.0
 77
   256
1001
ACAD
1000
DSTYLE
1002
{
1070
   341
1005
0
1070
     6
1000

1070
   147
1040
0.0625
1070
    77
1070
     0
1002
}
  0
LEADER
  5
3596
330
18
100
AcDbEntity
  8
A-NOTE
100
AcDbLeader
  3
DIM-1
 76
     3
 10
1564.510901970539
 20
1004.301439164309
 30
0.0
 10
1563.728982802909
 20
1004.301439164309
 30
0.0
 10
1563.247138298065
 20
1004.301439164309
 30
0.0
 77
   256
1001
ACAD
1000
DSTYLE
1002
{
1070
   341
1005
0
1070
     6
1000

1070
   147
1040
0.0625
1070
    77
1070
     0
1002
}
  0
LEADER
  5
3597
330
18
100
AcDbEntity
  8
A-NOTE
100
AcDbLeader
  3
DIM-1
 76
     3
 10
1565.694873480112
 20
1000.672892369609
 30
0.0
 10
1564.92128865828
 20
1001.188222903484
 30
0.0
 10
1563.829315102795
 20
1001.188222903484
 30
0.0
 77
   256
1001
ACAD
1000
DSTYLE
1002
{
1070
   341
1005
0
1070
     6
1000

1070
   147
1040
0.0625
1070
    77
1070
     0
1002
}
  0
LEADER
  5
3598
330
18
100
AcDbEntity
  8
A-NOTE
100
AcDbLeader
  3
DIM-1
 76
     3
 10
1563.747834961594
 20
1000.158224453229
 30
0.0
 10
1563.097502361862
 20
1000.589033551359
 30
0.0
 10
1562.935601133069
 20
1000.589033551359
 30
0.0
 77
   256
1001
ACAD
1000
DSTYLE
1002
{
1070
   341
1005
0
1070
     6
1000

1070
   147
1040
0.0625
1070
    77
1070
     0
1002
}
  0
LINE
  5
35ED
330
18
100
AcDbEntity
  8
A-BACKING
100
AcDbLine
 10
1558.535909126282
 20
1014.979804696227
 30
0.0
 11
1558.535909126283
 21
1011.163558379782
 31
0.0
  0
LINE
  5
35EE
330
18
100
AcDbEntity
  8
A-BACKING
100
AcDbLine
 10
1558.760909126283
 20
1014.805162840023
 30
0.0
 11
1558.760909126283
 21
1011.338200235987
 31
0.0
  0
LINE
  5
35F1
330
18
100
AcDbEntity
  8
A-BACKING
100
AcDbLine
 10
1558.838175621556
 20
1014.733970253503
 30
0.0
 11
1558.838175621555
 21
1011.409392822506
 31
0.0
  0
CIRCLE
  5
35F3
330
18
100
AcDbEntity
  8
A-NOTE
  6
HIDDEN2
100
AcDbCircle
 10
1557.235127876283
 20
1013.071681538005
 30
0.0
 40
2.309321512326733
  0
LINE
  5
35FB
330
18
100
AcDbEntity
  8
A-BACKING
100
AcDbLine
 10
1558.535909126282
 20
1014.855652609224
 30
0.0
 11
1558.60849885473
 21
1014.928242337671
 31
0.0
1001
ACAD
1010
1563.922778005022
1020
1001.741402334205
1030
0.0
  0
LINE
  5
35FC
330
18
100
AcDbEntity
  8
A-BACKING
100
AcDbLine
 10
1558.535909126282
 20
1014.325322523334
 30
0.0
 11
1558.760909126283
 21
1014.550322523335
 31
0.0
1001
ACAD
1010
1563.922778005022
1020
1001.741402334205
1030
0.0
  0
LINE
  5
35FD
330
18
100
AcDbEntity
  8
A-BACKING
100
AcDbLine
 10
1558.535909126282
 20
1013.794992437444
 30
0.0
 11
1558.760909126283
 21
1014.019992437445
 31
0.0
1001
ACAD
1010
1563.922778005022
1020
1001.741402334205
1030
0.0
  0
LINE
  5
35FE
330
18
100
AcDbEntity
  8
A-BACKING
100
AcDbLine
 10
1558.535909126282
 20
1013.264662351554
 30
0.0
 11
1558.760909126283
 21
1013.489662351555
 31
0.0
1001
ACAD
1010
1563.922778005022
1020
1001.741402334205
1030
0.0
  0
LINE
  5
35FF
330
18
100
AcDbEntity
  8
A-BACKING
100
AcDbLine
 10
1558.535909126282
 20
1012.734332265664
 30
0.0
 11
1558.760909126283
 21
1012.959332265665
 31
0.0
1001
ACAD
1010
1563.922778005022
1020
1001.741402334205
1030
0.0
  0
LINE
  5
3600
330
18
100
AcDbEntity
  8
A-BACKING
100
AcDbLine
 10
1558.535909126282
 20
1012.204002179774
 30
0.0
 11
1558.760909126283
 21
1012.429002179775
 31
0.0
1001
ACAD
1010
1563.922778005022
1020
1001.741402334205
1030
0.0
  0
LINE
  5
3601
330
18
100
AcDbEntity
  8
A-BACKING
100
AcDbLine
 10
1558.535909126282
 20
1011.673672093885
 30
0.0
 11
1558.760909126283
 21
1011.898672093886
 31
0.0
1001
ACAD
1010
1563.922778005022
1020
1001.741402334205
1030
0.0
  0
LINE
  5
3602
330
18
100
AcDbEntity
  8
A-BACKING
100
AcDbLine
 10
1558.535909126282
 20
1011.143342007995
 30
0.0
 11
1558.760909126283
 21
1011.368342007996
 31
0.0
1001
ACAD
1010
1563.922778005022
1020
1001.741402334205
1030
0.0
  0
ARC
  5
3633
330
18
100
AcDbEntity
  8
A-MORTAR
100
AcDbCircle
 10
1554.346393934153
 20
1012.406247885278
 30
0.0
 40
2.132248463863932
100
AcDbArc
 50
333.9167438996768
 51
26.08325610039701
  0
LINE
  5
3634
330
18
100
AcDbEntity
  8
A-MORTAR
100
AcDbLine
 10
1556.585459014573
 20
1012.902437358316
 30
0.0
 11
1556.585459014573
 21
1012.902437358316
 31
0.0
1001
ACAD
1010
1556.829031629864
1020
1004.585152334205
1030
0.0
  0
LINE
  5
3635
330
18
100
AcDbEntity
  8
A-MORTAR
100
AcDbLine
 10
1556.990069218122
 20
1013.21290568711
 30
0.0
 11
1556.990069218122
 21
1013.21290568711
 31
0.0
1001
ACAD
1010
1556.829031629864
1020
1004.585152334205
1030
0.0
  0
LINE
  5
3636
330
18
100
AcDbEntity
  8
A-MORTAR
100
AcDbLine
 10
1556.604357022005
 20
1012.324390227611
 30
0.0
 11
1556.604357022005
 21
1012.324390227611
 31
0.0
1001
ACAD
1010
1556.829031629864
1020
1004.585152334205
1030
0.0
  0
LINE
  5
3637
330
18
100
AcDbEntity
  8
A-MORTAR
100
AcDbLine
 10
1557.008967225554
 20
1012.634858556406
 30
0.0
 11
1557.008967225554
 21
1012.634858556406
 31
0.0
1001
ACAD
1010
1556.829031629864
1020
1004.585152334205
1030
0.0
  0
LINE
  5
3638
330
18
100
AcDbEntity
  8
A-MORTAR
100
AcDbLine
 10
1557.395726978946
 20
1012.931629753048
 30
0.0
 11
1557.395726978946
 21
1012.931629753048
 31
0.0
1001
ACAD
1010
1556.829031629864
1020
1004.585152334205
1030
0.0
  0
LINE
  5
3639
330
18
100
AcDbEntity
  8
A-MORTAR
100
AcDbLine
 10
1556.623255029438
 20
1011.746343096907
 30
0.0
 11
1556.623255029438
 21
1011.746343096907
 31
0.0
1001
ACAD
1010
1556.829031629864
1020
1004.585152334205
1030
0.0
  0
LINE
  5
363A
330
18
100
AcDbEntity
  8
A-MORTAR
100
AcDbLine
 10
1557.027865232986
 20
1012.056811425701
 30
0.0
 11
1557.027865232986
 21
1012.056811425701
 31
0.0
1001
ACAD
1010
1556.829031629864
1020
1004.585152334205
1030
0.0
  0
LINE
  5
363B
330
18
100
AcDbEntity
  8
A-MORTAR
100
AcDbLine
 10
1557.414624986378
 20
1012.353582622343
 30
0.0
 11
1557.414624986378
 21
1012.353582622343
 31
0.0
1001
ACAD
1010
1556.829031629864
1020
1004.585152334205
1030
0.0
  0
LINE
  5
363C
330
18
100
AcDbEntity
  8
A-MORTAR
100
AcDbLine
 10
1557.776394109551
 20
1012.631177833971
 30
0.0
 11
1557.776394109551
 21
1012.631177833971
 31
0.0
1001
ACAD
1010
1556.829031629864
1020
1004.585152334205
1030
0.0
  0
LINE
  5
363D
330
18
100
AcDbEntity
  8
A-MORTAR
100
AcDbLine
 10
1557.04676324042
 20
1011.478764294997
 30
0.0
 11
1557.04676324042
 21
1011.478764294997
 31
0.0
1001
ACAD
1010
1556.829031629864
1020
1004.585152334205
1030
0.0
  0
LINE
  5
363E
330
18
100
AcDbEntity
  8
A-MORTAR
100
AcDbLine
 10
1557.433522993811
 20
1011.775535491639
 30
0.0
 11
1557.433522993811
 21
1011.775535491639
 31
0.0
1001
ACAD
1010
1556.829031629864
1020
1004.585152334205
1030
0.0
  0
LINE
  5
363F
330
18
100
AcDbEntity
  8
A-MORTAR
100
AcDbLine
 10
1556.515820089837
 20
1013.055721940853
 30
0.0
 11
1556.515820089837
 21
1013.055721940853
 31
0.0
1001
ACAD
1010
1556.829031629864
1020
1004.585152334205
1030
0.0
  0
LINE
  5
3640
330
18
100
AcDbEntity
  8
A-MORTAR
100
AcDbLine
 10
1556.759715525735
 20
1013.087831384139
 30
0.0
 11
1556.759715525735
 21
1013.087831384139
 31
0.0
1001
ACAD
1010
1556.829031629864
1020
1004.585152334205
1030
0.0
  0
LINE
  5
3641
330
18
100
AcDbEntity
  8
A-MORTAR
100
AcDbLine
 10
1556.63626635218
 20
1012.294833829574
 30
0.0
 11
1556.63626635218
 21
1012.294833829574
 31
0.0
1001
ACAD
1010
1556.829031629864
1020
1004.585152334205
1030
0.0
  0
LINE
  5
3642
330
18
100
AcDbEntity
  8
A-MORTAR
100
AcDbLine
 10
1556.792418917847
 20
1012.315391704848
 30
0.0
 11
1556.792418917847
 21
1012.315391704848
 31
0.0
1001
ACAD
1010
1556.829031629864
1020
1004.585152334205
1030
0.0
  0
LINE
  5
3643
330
18
100
AcDbEntity
  8
A-MORTAR
100
AcDbLine
 10
1557.036314353745
 20
1012.347501148135
 30
0.0
 11
1557.036314353745
 21
1012.347501148135
 31
0.0
1001
ACAD
1010
1556.829031629864
1020
1004.585152334205
1030
0.0
  0
LINE
  5
3644
330
18
100
AcDbEntity
  8
A-MORTAR
100
AcDbLine
 10
1557.443798191769
 20
1012.401147413137
 30
0.0
 11
1557.443798191769
 21
1012.401147413137
 31
0.0
1001
ACAD
1010
1556.829031629864
1020
1004.585152334205
1030
0.0
  0
LINE
  5
3645
330
18
100
AcDbEntity
  8
A-MORTAR
100
AcDbLine
 10
1557.599950757436
 20
1012.421705288412
 30
0.0
 11
1557.599950757436
 21
1012.421705288412
 31
0.0
1001
ACAD
1010
1556.829031629864
1020
1004.585152334205
1030
0.0
  0
LINE
  5
3646
330
18
100
AcDbEntity
  8
A-MORTAR
100
AcDbLine
 10
1556.505381342163
 20
1011.500857328565
 30
0.0
 11
1556.505381342163
 21
1011.500857328565
 31
0.0
1001
ACAD
1010
1556.829031629864
1020
1004.585152334205
1030
0.0
  0
LINE
  5
3647
330
18
100
AcDbEntity
  8
A-MORTAR
100
AcDbLine
 10
1556.912865180188
 20
1011.554503593567
 30
0.0
 11
1556.912865180188
 21
1011.554503593567
 31
0.0
1001
ACAD
1010
1556.829031629864
1020
1004.585152334205
1030
0.0
  0
LINE
  5
3648
330
18
100
AcDbEntity
  8
A-MORTAR
100
AcDbLine
 10
1557.069017745854
 20
1011.575061468842
 30
0.0
 11
1557.069017745854
 21
1011.575061468842
 31
0.0
1001
ACAD
1010
1556.829031629864
1020
1004.585152334205
1030
0.0
  0
LINE
  5
3649
330
18
100
AcDbEntity
  8
A-MORTAR
100
AcDbLine
 10
1557.312913181752
 20
1011.607170912128
 30
0.0
 11
1557.312913181752
 21
1011.607170912128
 31
0.0
1001
ACAD
1010
1556.829031629864
1020
1004.585152334205
1030
0.0
  0
LINE
  5
364A
330
18
100
AcDbEntity
  8
A-MORTAR
100
AcDbLine
 10
1557.720397019777
 20
1011.660817177131
 30
0.0
 11
1557.720397019777
 21
1011.660817177131
 31
0.0
1001
ACAD
1010
1556.829031629864
1020
1004.585152334205
1030
0.0
  0
LINE
  5
364B
330
18
100
AcDbEntity
  8
A-MORTAR
100
AcDbLine
 10
1557.276394006549
 20
1012.974604656812
 30
0.0
 11
1557.276394006549
 21
1012.974604656812
 31
0.0
1001
ACAD
1010
1556.829031629864
1020
1004.585152334205
1030
0.0
  0
LINE
  5
364C
330
18
100
AcDbEntity
  8
A-MORTAR
100
AcDbLine
 10
1557.402902723421
 20
1012.89400971556
 30
0.0
 11
1557.402902723421
 21
1012.89400971556
 31
0.0
1001
ACAD
1010
1556.829031629864
1020
1004.585152334205
1030
0.0
  0
LINE
  5
364D
330
18
100
AcDbEntity
  8
A-MORTAR
100
AcDbLine
 10
1556.468660164896
 20
1012.892311999498
 30
0.0
 11
1556.468660164896
 21
1012.892311999498
 31
0.0
1001
ACAD
1010
1556.829031629864
1020
1004.585152334205
1030
0.0
  0
LINE
  5
364E
330
18
100
AcDbEntity
  8
A-MORTAR
100
AcDbLine
 10
1556.924091545635
 20
1012.602170210991
 30
0.0
 11
1556.924091545635
 21
1012.602170210991
 31
0.0
1001
ACAD
1010
1556.829031629864
1020
1004.585152334205
1030
0.0
  0
LINE
  5
364F
330
18
100
AcDbEntity
  8
A-MORTAR
100
AcDbLine
 10
1557.518682514933
 20
1012.223373987106
 30
0.0
 11
1557.518682514933
 21
1012.223373987106
 31
0.0
1001
ACAD
1010
1556.829031629864
1020
1004.585152334205
1030
0.0
  0
LINE
  5
3650
330
18
100
AcDbEntity
  8
A-MORTAR
100
AcDbLine
 10
1557.645191231805
 20
1012.142779045854
 30
0.0
 11
1557.645191231805
 21
1012.142779045854
 31
0.0
1001
ACAD
1010
1556.829031629864
1020
1004.585152334205
1030
0.0
  0
LINE
  5
3651
330
18
100
AcDbEntity
  8
A-MORTAR
100
AcDbLine
 10
1556.584439956408
 20
1012.221676271045
 30
0.0
 11
1556.584439956408
 21
1012.221676271045
 31
0.0
1001
ACAD
1010
1556.829031629864
1020
1004.585152334205
1030
0.0
  0
LINE
  5
3652
330
18
100
AcDbEntity
  8
A-MORTAR
100
AcDbLine
 10
1556.71094867328
 20
1012.141081329793
 30
0.0
 11
1556.71094867328
 21
1012.141081329793
 31
0.0
1001
ACAD
1010
1556.829031629864
1020
1004.585152334205
1030
0.0
  0
LINE
  5
3653
330
18
100
AcDbEntity
  8
A-MORTAR
100
AcDbLine
 10
1557.166380054019
 20
1011.850939541286
 30
0.0
 11
1557.166380054019
 21
1011.850939541286
 31
0.0
1001
ACAD
1010
1556.829031629864
1020
1004.585152334205
1030
0.0
  0
LINE
  5
3654
330
18
100
AcDbEntity
  8
A-MORTAR
100
AcDbLine
 10
1557.760971023317
 20
1011.472143317402
 30
0.0
 11
1557.760971023317
 21
1011.472143317402
 31
0.0
1001
ACAD
1010
1556.829031629864
1020
1004.585152334205
1030
0.0
  0
LINE
  5
3655
330
18
100
AcDbEntity
  8
A-MORTAR
100
AcDbLine
 10
1556.826728464791
 20
1011.47044560134
 30
0.0
 11
1556.826728464791
 21
1011.47044560134
 31
0.0
1001
ACAD
1010
1556.829031629864
1020
1004.585152334205
1030
0.0
  0
LINE
  5
3656
330
18
100
AcDbEntity
  8
A-MORTAR
100
AcDbLine
 10
1556.466383271209
 20
1013.122237690543
 30
0.0
 11
1556.466383271209
 21
1013.122237690543
 31
0.0
1001
ACAD
1010
1556.829031629864
1020
1004.585152334205
1030
0.0
  0
LINE
  5
3657
330
18
100
AcDbEntity
  8
A-MORTAR
100
AcDbLine
 10
1556.52167907147
 20
1013.071568424972
 30
0.0
 11
1556.52167907147
 21
1013.071568424972
 31
0.0
1001
ACAD
1010
1556.829031629864
1020
1004.585152334205
1030
0.0
  0
LINE
  5
3658
330
18
100
AcDbEntity
  8
A-MORTAR
100
AcDbLine
 10
1556.782675248701
 20
1012.832409491476
 30
0.0
 11
1556.782675248701
 21
1012.832409491476
 31
0.0
1001
ACAD
1010
1556.829031629864
1020
1004.585152334205
1030
0.0
  0
LINE
  5
3659
330
18
100
AcDbEntity
  8
A-MORTAR
100
AcDbLine
 10
1557.081272570109
 20
1012.558795457392
 30
0.0
 11
1557.081272570109
 21
1012.558795457392
 31
0.0
1001
ACAD
1010
1556.829031629864
1020
1004.585152334205
1030
0.0
  0
LINE
  5
365A
330
18
100
AcDbEntity
  8
A-MORTAR
100
AcDbLine
 10
1557.13656837037
 20
1012.50812619182
 30
0.0
 11
1557.13656837037
 21
1012.50812619182
 31
0.0
1001
ACAD
1010
1556.829031629864
1020
1004.585152334205
1030
0.0
  0
LINE
  5
365B
330
18
100
AcDbEntity
  8
A-MORTAR
100
AcDbLine
 10
1557.3975645476
 20
1012.268967258325
 30
0.0
 11
1557.3975645476
 21
1012.268967258325
 31
0.0
1001
ACAD
1010
1556.829031629864
1020
1004.585152334205
1030
0.0
  0
LINE
  5
365C
330
18
100
AcDbEntity
  8
A-MORTAR
100
AcDbLine
 10
1557.696161869009
 20
1011.99535322424
 30
0.0
 11
1557.696161869009
 21
1011.99535322424
 31
0.0
1001
ACAD
1010
1556.829031629864
1020
1004.585152334205
1030
0.0
  0
LINE
  5
365D
330
18
100
AcDbEntity
  8
A-MORTAR
100
AcDbLine
 10
1557.751457669269
 20
1011.944683958669
 30
0.0
 11
1557.751457669269
 21
1011.944683958669
 31
0.0
1001
ACAD
1010
1556.829031629864
1020
1004.585152334205
1030
0.0
  0
LINE
  5
365E
330
18
100
AcDbEntity
  8
A-MORTAR
100
AcDbLine
 10
1556.495726566229
 20
1012.005664588844
 30
0.0
 11
1556.495726566229
 21
1012.005664588844
 31
0.0
1001
ACAD
1010
1556.829031629864
1020
1004.585152334205
1030
0.0
  0
LINE
  5
365F
330
18
100
AcDbEntity
  8
A-MORTAR
100
AcDbLine
 10
1556.794323887638
 20
1011.732050554759
 30
0.0
 11
1556.794323887638
 21
1011.732050554759
 31
0.0
1001
ACAD
1010
1556.829031629864
1020
1004.585152334205
1030
0.0
  0
LINE
  5
3660
330
18
100
AcDbEntity
  8
A-MORTAR
100
AcDbLine
 10
1556.849619687898
 20
1011.681381289188
 30
0.0
 11
1556.849619687898
 21
1011.681381289188
 31
0.0
1001
ACAD
1010
1556.829031629864
1020
1004.585152334205
1030
0.0
  0
LINE
  5
3661
330
18
100
AcDbEntity
  8
A-BRICK
100
AcDbLine
 10
1556.261485906259
 20
1015.165717631653
 30
0.0
 11
1556.26148590626
 21
1013.343747885279
 31
0.0
  0
LINE
  5
3662
330
18
100
AcDbEntity
  8
A-BRICK
100
AcDbLine
 10
1556.26148590626
 20
1013.343747885279
 30
0.0
 11
1557.76148590626
 21
1013.343747885279
 31
0.0
  0
LINE
  5
3663
330
18
100
AcDbEntity
  8
A-BRICK
100
AcDbLine
 10
1557.76148590626
 20
1013.343747885279
 30
0.0
 11
1557.761485906259
 21
1015.320217299689
 31
0.0
  0
LINE
  5
3664
330
18
100
AcDbEntity
  8
A-HATCH
100
AcDbLine
 10
1556.261485906258
 20
1015.101411894376
 30
0.0
 11
1556.374863252253
 21
1015.21478924037
 31
0.0
1001
ACAD
1010
1561.555376185298
1020
1000.73625036209
1030
0.0
  0
LINE
  5
3665
330
18
100
AcDbEntity
  8
A-HATCH
100
AcDbLine
 10
1556.261485906259
 20
1014.040751722596
 30
0.0
 11
1557.576383811233
 21
1015.355649627571
 31
0.0
1001
ACAD
1010
1561.555376185298
1020
1000.73625036209
1030
0.0
  0
LINE
  5
3666
330
18
100
AcDbEntity
  8
A-HATCH
100
AcDbLine
 10
1556.625142240722
 20
1013.343747885279
 30
0.0
 11
1557.76148590626
 21
1014.480091550817
 31
0.0
1001
ACAD
1010
1561.555376185298
1020
1000.73625036209
1030
0.0
  0
LINE
  5
3667
330
18
100
AcDbEntity
  8
A-HATCH
100
AcDbLine
 10
1557.685802412502
 20
1013.343747885279
 30
0.0
 11
1557.76148590626
 21
1013.419431379037
 31
0.0
1001
ACAD
1010
1561.555376185298
1020
1000.73625036209
1030
0.0
  0
LINE
  5
3668
330
18
100
AcDbEntity
  8
A-BRICK
100
AcDbLine
 10
1556.26148590626
 20
1011.46874788528
 30
0.0
 11
1556.26148590626
 21
1010.977645444356
 31
0.0
  0
LINE
  5
366A
330
18
100
AcDbEntity
  8
A-BRICK
100
AcDbLine
 10
1557.76148590626
 20
1010.82314577632
 30
0.0
 11
1557.76148590626
 21
1011.46874788528
 31
0.0
  0
LINE
  5
366B
330
18
100
AcDbEntity
  8
A-BRICK
100
AcDbLine
 10
1557.76148590626
 20
1011.46874788528
 30
0.0
 11
1556.26148590626
 21
1011.46874788528
 31
0.0
  0
LINE
  5
366C
330
18
100
AcDbEntity
  8
A-HATCH
100
AcDbLine
 10
1556.343955515034
 20
1010.941240816031
 30
0.0
 11
1556.871462584283
 21
1011.46874788528
 31
0.0
1001
ACAD
1010
1561.555376185298
1020
1000.73625036209
1030
0.0
  0
LINE
  5
366D
330
18
100
AcDbEntity
  8
A-HATCH
100
AcDbLine
 10
1557.225753921829
 20
1010.762379051046
 30
0.0
 11
1557.76148590626
 21
1011.298111035477
 31
0.0
1001
ACAD
1010
1561.555376185298
1020
1000.73625036209
1030
0.0
  0
LINE
  5
3674
330
18
100
AcDbEntity
  8
A-MTL_GRID
100
AcDbLine
 10
1557.235127876283
 20
1013.203122885279
 30
0.0
 11
1557.785909126284
 21
1013.203122885279
 31
0.0
  0
LINE
  5
3675
330
18
100
AcDbEntity
  8
A-MTL_GRID
100
AcDbLine
 10
1557.785909126284
 20
1013.203122885279
 30
0.0
 11
1557.785909126284
 21
1012.610593784598
 31
0.0
  0
LINE
  5
3676
330
18
100
AcDbEntity
  8
A-MTL_GRID
100
AcDbLine
 10
1557.785909126282
 20
1015.314359816747
 30
0.0
 11
1557.785909126283
 21
1013.343747885279
 31
0.0
  0
LINE
  5
3677
330
18
100
AcDbEntity
  8
A-MTL_GRID
100
AcDbLine
 10
1557.785909126283
 20
1013.343747885279
 30
0.0
 11
1557.223409126283
 21
1013.343747885279
 31
0.0
  0
ARC
  5
3678
330
18
100
AcDbEntity
  8
A-MTL_GRID
100
AcDbCircle
 10
1557.235127876283
 20
1013.203122885279
 30
0.0
 40
0.1411124364702222
100
AcDbArc
 50
94.76364169072147
 51
265.2363583092785
  0
LINE
  5
3679
330
18
100
AcDbEntity
  8
A-MTL_GRID
100
AcDbLine
 10
1557.223409126283
 20
1013.062497885279
 30
0.0
 11
1557.579300908912
 21
1013.062497885278
 31
0.0
  0
MTEXT
  5
367D
330
18
100
AcDbEntity
  8
A-NOTE
100
AcDbMText
 10
1560.444649252429
 20
1014.863271970672
 30
0.0
 40
0.25
 41
3.229579997254859
 71
     1
 72
     5
  1
\A1;INTERLOCKING EDGES FOR STRAIGHT AND HORIZONTAL LINES
  7
ROMANS
  0
LINE
  5
3695
330
18
100
AcDbEntity
  8
A-MTL_GRID
100
AcDbLine
 10
1564.763488598599
 20
1010.318396048571
 30
0.0
 11
1564.947082348599
 21
1010.318396048571
 31
0.0
  0
LINE
  5
3696
330
18
100
AcDbEntity
  8
A-MTL_GRID
100
AcDbLine
 10
1564.947082348599
 20
1010.318396048571
 30
0.0
 11
1564.947082348599
 21
1010.141232278254
 31
0.0
  0
LINE
  5
36BC
330
18
100
AcDbEntity
  8
A-MTL_GRID
100
AcDbLine
 10
1557.785909126283
 20
1012.265622885278
 30
0.0
 11
1557.785909126283
 21
1010.829003259262
 31
0.0
  0
MTEXT
  5
37D4
330
18
100
AcDbEntity
  8
A-NOTE
100
AcDbMText
 10
1560.448204745022
 20
1009.188635212073
 30
0.0
 40
0.25
 41
3.532930258562828
 71
     1
 72
     5
  1
\A1;MORTAR ANCHORING SLOT TO ENSURE A BONDING TO THE GRID
  7
ROMANS
  0
MTEXT
  5
37D8
330
18
100
AcDbEntity
  8
A-NOTE
100
AcDbMText
 10
1560.457672326761
 20
1005.967970546087
 30
0.0
 40
0.25
 41
3.229579997254859
 71
     1
 72
     5
  1
\A1;1/2" THICK \PREAL BRICK
  7
ROMANS
  0
LEADER
  5
37D9
330
18
100
AcDbEntity
  8
A-NOTE
100
AcDbLeader
  3
DIM-1
 76
     3
 10
1564.435804944279
 20
1005.788503201072
 30
0.0
 10
1562.955661497725
 20
1005.788503201072
 30
0.0
 10
1562.28263574655
 20
1005.788503201072
 30
0.0
 77
   256
1001
ACAD
1000
DSTYLE
1002
{
1070
   341
1005
0
1070
     6
1000

1070
   147
1040
0.0625
1070
    77
1070
     0
1002
}
  0
LINE
  5
3896
330
18
100
AcDbEntity
  8
A-BACKING
100
AcDbLine
 10
1565.672837847023
 20
1011.236397955226
 30
0.0
 11
1565.672837847023
 21
1002.865271048571
 31
0.0
  0
LEADER
  5
38A7
330
18
100
AcDbEntity
  8
A-NOTE
100
AcDbLeader
  3
DIM-1
 76
     3
 10
1564.945493267312
 20
1003.503739456013
 30
0.0
 10
1564.128084408892
 20
1003.503739456013
 30
0.0
 10
1563.811390977515
 20
1003.503739456013
 30
0.0
 77
   256
1001
ACAD
1000
DSTYLE
1002
{
1070
   341
1005
0
1070
     6
1000

1070
   147
1040
0.0625
1070
    77
1070
     0
1002
}
  0
HATCH
  5
38D9
330
18
100
AcDbEntity
  8
A-HATCH
100
AcDbHatch
 10
0.0
 20
0.0
 30
0.0
210
0.0
220
0.0
230
1.0
  2
EARTH
 70
     0
 71
     0
 91
        1
 92
        1
 93
        4
 72
     1
 10
1565.297837847023
 20
1000.240271048571
 11
1559.729682695734
 21
999.9824439323748
 72
     1
 10
1559.729682695734
 20
999.9824439323748
 11
1559.729682695734
 21
999.3492564359548
 72
     1
 10
1559.729682695734
 20
999.3492564359548
 11
1565.297837847023
 21
999.3492564359547
 72
     1
 10
1565.297837847023
 20
999.3492564359547
 11
1565.297837847023
 21
1000.240271048571
 97
        0
 75
     0
 76
     1
 52
0.0
 41
1.25
 77
     0
 78
     6
 53
0.0
 43
1559.729682695734
 44
999.3492564359547
 45
0.3125
 46
0.3125
 79
     2
 49
0.3125
 49
-0.3125
 53
0.0
 43
1559.729682695734
 44
999.4664439359547
 45
0.3125
 46
0.3125
 79
     2
 49
0.3125
 49
-0.3125
 53
0.0
 43
1559.729682695734
 44
999.5836314359547
 45
0.3125
 46
0.3125
 79
     2
 49
0.3125
 49
-0.3125
 53
90.0
 43
1559.768745195734
 44
999.6226939359547
 45
-0.3124999999999999
 46
0.3125
 79
     2
 49
0.3125
 49
-0.3125
 53
90.0
 43
1559.885932695734
 44
999.6226939359547
 45
-0.3124999999999999
 46
0.3125
 79
     2
 49
0.3125
 49
-0.3125
 53
90.0
 43
1560.003120195734
 44
999.6226939359547
 45
-0.3124999999999999
 46
0.3125
 79
     2
 49
0.3125
 49
-0.3125
 98
        1
 10
1.274304343576887
 20
-0.5948812856346422
1001
ACAD
1010
1558.455378352157
1020
999.9441377215893
1030
0.0
  0
MTEXT
  5
38F4
330
18
100
AcDbEntity
  8
A-NOTE
100
AcDbMText
 10
1566.154145646726
 20
1011.723280123762
 30
0.0
 40
0.25
 41
2.547618775369983
 71
     1
 72
     5
  1
\A1;SHEATHING
  7
ROMANS
  0
LEADER
  5
3906
330
18
100
AcDbEntity
  8
A-NOTE
100
AcDbLeader
  3
DIM-1
 76
     3
 10
1565.674446403815
 20
1011.065146349914
 30
0.0
 10
1565.862197462034
 20
1011.592539951789
 30
0.0
 10
1566.055574936163
 20
1011.592539951789
 30
0.0
 77
   256
1001
ACAD
1000
DSTYLE
1002
{
1070
   341
1005
0
1070
     6
1000

1070
   147
1040
0.0625
1070
    77
1070
     0
1002
}
  0
LINE
  5
3A51
330
18
100
AcDbEntity
  8
A-MTL_GRID
100
AcDbLine
 10
1564.947082348599
 20
1006.255896048571
 30
0.0
 11
1564.947082348599
 21
1004.615271048571
 31
0.0
  0
LINE
  5
3A52
330
18
100
AcDbEntity
  8
A-MTL_GRID
100
AcDbLine
 10
1564.947082348599
 20
1004.615271048571
 30
0.0
 11
1564.759582348599
 21
1004.615271048571
 31
0.0
  0
ARC
  5
3A53
330
18
100
AcDbEntity
  8
A-MTL_GRID
100
AcDbCircle
 10
1564.763488598599
 20
1004.568396048571
 30
0.0
 40
0.0470374788234074
100
AcDbArc
 50
94.76364169072616
 51
265.2363583092738
  0
LINE
  5
3A54
330
18
100
AcDbEntity
  8
A-MTL_GRID
100
AcDbLine
 10
1564.759582348599
 20
1004.521521048571
 30
0.0
 11
1564.947082348599
 21
1004.521521048571
 31
0.0
  0
LINE
  5
3A55
330
18
100
AcDbEntity
  8
A-MTL_GRID
100
AcDbLine
 10
1564.947082348599
 20
1004.521521048571
 30
0.0
 11
1564.947082348599
 21
1004.391232278253
 31
0.0
  0
LINE
  5
3A56
330
18
100
AcDbEntity
  8
A-MTL_GRID
100
AcDbLine
 10
1564.947082348599
 20
1009.130896048571
 30
0.0
 11
1564.947082348599
 21
1007.490271048571
 31
0.0
  0
LINE
  5
3A57
330
18
100
AcDbEntity
  8
A-MTL_GRID
100
AcDbLine
 10
1564.947082348599
 20
1007.490271048571
 30
0.0
 11
1564.759582348599
 21
1007.490271048571
 31
0.0
  0
ARC
  5
3A58
330
18
100
AcDbEntity
  8
A-MTL_GRID
100
AcDbCircle
 10
1564.763488598599
 20
1007.443396048571
 30
0.0
 40
0.0470374788234074
100
AcDbArc
 50
94.76364169072616
 51
265.2363583092738
  0
LINE
  5
3A59
330
18
100
AcDbEntity
  8
A-MTL_GRID
100
AcDbLine
 10
1564.759582348599
 20
1007.396521048571
 30
0.0
 11
1564.947082348599
 21
1007.39652104857
 31
0.0
  0
LINE
  5
3A5A
330
18
100
AcDbEntity
  8
A-MTL_GRID
100
AcDbLine
 10
1564.947082348599
 20
1007.39652104857
 30
0.0
 11
1564.947082348599
 21
1007.266232278253
 31
0.0
  0
LINE
  5
3A7A
330
18
100
AcDbEntity
  8
A-BACKING
100
AcDbLine
 10
1565.206885739192
 20
1001.490271048571
 30
0.0
 11
1565.197082348599
 21
1001.500074439164
 31
0.0
1001
ACAD
1010
1563.922778005022
1020
1001.741402334205
1030
0.0
  0
LINE
  5
3A7B
330
18
100
AcDbEntity
  8
A-BACKING
100
AcDbLine
 10
1565.272082348599
 20
1001.60185113446
 30
0.0
 11
1565.197082348599
 21
1001.676851134461
 31
0.0
1001
ACAD
1010
1563.922778005022
1020
1001.741402334205
1030
0.0
  0
LINE
  5
3A7C
330
18
100
AcDbEntity
  8
A-BACKING
100
AcDbLine
 10
1565.272082348599
 20
1001.778627829757
 30
0.0
 11
1565.197082348599
 21
1001.853627829757
 31
0.0
1001
ACAD
1010
1563.922778005022
1020
1001.741402334205
1030
0.0
  0
LINE
  5
3A7D
330
18
100
AcDbEntity
  8
A-BACKING
100
AcDbLine
 10
1565.272082348599
 20
1001.955404525053
 30
0.0
 11
1565.197082348599
 21
1002.030404525054
 31
0.0
1001
ACAD
1010
1563.922778005022
1020
1001.741402334205
1030
0.0
  0
LINE
  5
3A7E
330
18
100
AcDbEntity
  8
A-BACKING
100
AcDbLine
 10
1565.272082348599
 20
1002.13218122035
 30
0.0
 11
1565.197082348599
 21
1002.20718122035
 31
0.0
1001
ACAD
1010
1563.922778005022
1020
1001.741402334205
1030
0.0
  0
LINE
  5
3A7F
330
18
100
AcDbEntity
  8
A-BACKING
100
AcDbLine
 10
1565.272082348599
 20
1002.308957915647
 30
0.0
 11
1565.197082348599
 21
1002.383957915647
 31
0.0
1001
ACAD
1010
1563.922778005022
1020
1001.741402334205
1030
0.0
  0
LINE
  5
3A80
330
18
100
AcDbEntity
  8
A-BACKING
100
AcDbLine
 10
1565.272082348599
 20
1002.485734610943
 30
0.0
 11
1565.197082348599
 21
1002.560734610944
 31
0.0
1001
ACAD
1010
1563.922778005022
1020
1001.741402334205
1030
0.0
  0
LINE
  5
3A81
330
18
100
AcDbEntity
  8
A-BACKING
100
AcDbLine
 10
1565.272082348599
 20
1002.66251130624
 30
0.0
 11
1565.197082348599
 21
1002.73751130624
 31
0.0
1001
ACAD
1010
1563.922778005022
1020
1001.741402334205
1030
0.0
  0
LINE
  5
3A82
330
18
100
AcDbEntity
  8
A-BACKING
100
AcDbLine
 10
1565.272082348599
 20
1002.839288001537
 30
0.0
 11
1565.197082348599
 21
1002.914288001537
 31
0.0
1001
ACAD
1010
1563.922778005022
1020
1001.741402334205
1030
0.0
  0
LINE
  5
3A83
330
18
100
AcDbEntity
  8
A-BACKING
100
AcDbLine
 10
1565.272082348599
 20
1003.016064696833
 30
0.0
 11
1565.197082348599
 21
1003.091064696834
 31
0.0
1001
ACAD
1010
1563.922778005022
1020
1001.741402334205
1030
0.0
  0
LINE
  5
3A84
330
18
100
AcDbEntity
  8
A-BACKING
100
AcDbLine
 10
1565.272082348599
 20
1003.19284139213
 30
0.0
 11
1565.197082348599
 21
1003.26784139213
 31
0.0
1001
ACAD
1010
1563.922778005022
1020
1001.741402334205
1030
0.0
  0
LINE
  5
3A85
330
18
100
AcDbEntity
  8
A-BACKING
100
AcDbLine
 10
1565.272082348599
 20
1003.369618087427
 30
0.0
 11
1565.197082348599
 21
1003.444618087427
 31
0.0
1001
ACAD
1010
1563.922778005022
1020
1001.741402334205
1030
0.0
  0
LINE
  5
3A86
330
18
100
AcDbEntity
  8
A-BACKING
100
AcDbLine
 10
1565.272082348599
 20
1003.546394782723
 30
0.0
 11
1565.197082348599
 21
1003.621394782724
 31
0.0
1001
ACAD
1010
1563.922778005022
1020
1001.741402334205
1030
0.0
  0
LINE
  5
3A87
330
18
100
AcDbEntity
  8
A-BACKING
100
AcDbLine
 10
1565.272082348599
 20
1003.72317147802
 30
0.0
 11
1565.197082348599
 21
1003.79817147802
 31
0.0
1001
ACAD
1010
1563.922778005022
1020
1001.741402334205
1030
0.0
  0
LINE
  5
3A88
330
18
100
AcDbEntity
  8
A-BACKING
100
AcDbLine
 10
1565.272082348599
 20
1003.899948173317
 30
0.0
 11
1565.197082348599
 21
1003.974948173317
 31
0.0
1001
ACAD
1010
1563.922778005022
1020
1001.741402334205
1030
0.0
  0
LINE
  5
3A89
330
18
100
AcDbEntity
  8
A-BACKING
100
AcDbLine
 10
1565.272082348599
 20
1004.076724868613
 30
0.0
 11
1565.197082348599
 21
1004.151724868614
 31
0.0
1001
ACAD
1010
1563.922778005022
1020
1001.741402334205
1030
0.0
  0
LINE
  5
3A8A
330
18
100
AcDbEntity
  8
A-BACKING
100
AcDbLine
 10
1565.272082348599
 20
1004.25350156391
 30
0.0
 11
1565.197082348599
 21
1004.32850156391
 31
0.0
1001
ACAD
1010
1563.922778005022
1020
1001.741402334205
1030
0.0
  0
LINE
  5
3A8B
330
18
100
AcDbEntity
  8
A-BACKING
100
AcDbLine
 10
1565.272082348599
 20
1004.430278259207
 30
0.0
 11
1565.197082348599
 21
1004.505278259207
 31
0.0
1001
ACAD
1010
1563.922778005022
1020
1001.741402334205
1030
0.0
  0
LINE
  5
3A8C
330
18
100
AcDbEntity
  8
A-BACKING
100
AcDbLine
 10
1565.272082348599
 20
1004.607054954503
 30
0.0
 11
1565.197082348599
 21
1004.682054954503
 31
0.0
1001
ACAD
1010
1563.922778005022
1020
1001.741402334205
1030
0.0
  0
LINE
  5
3A8D
330
18
100
AcDbEntity
  8
A-BACKING
100
AcDbLine
 10
1565.272082348599
 20
1004.7838316498
 30
0.0
 11
1565.197082348599
 21
1004.8588316498
 31
0.0
1001
ACAD
1010
1563.922778005022
1020
1001.741402334205
1030
0.0
  0
LINE
  5
3A8E
330
18
100
AcDbEntity
  8
A-BACKING
100
AcDbLine
 10
1565.272082348599
 20
1004.960608345096
 30
0.0
 11
1565.197082348599
 21
1005.035608345097
 31
0.0
1001
ACAD
1010
1563.922778005022
1020
1001.741402334205
1030
0.0
  0
LINE
  5
3A8F
330
18
100
AcDbEntity
  8
A-BACKING
100
AcDbLine
 10
1565.272082348599
 20
1005.137385040393
 30
0.0
 11
1565.197082348599
 21
1005.212385040393
 31
0.0
1001
ACAD
1010
1563.922778005022
1020
1001.741402334205
1030
0.0
  0
LINE
  5
3A90
330
18
100
AcDbEntity
  8
A-BACKING
100
AcDbLine
 10
1565.272082348599
 20
1005.31416173569
 30
0.0
 11
1565.197082348599
 21
1005.38916173569
 31
0.0
1001
ACAD
1010
1563.922778005022
1020
1001.741402334205
1030
0.0
  0
LINE
  5
3A91
330
18
100
AcDbEntity
  8
A-BACKING
100
AcDbLine
 10
1565.272082348599
 20
1005.490938430986
 30
0.0
 11
1565.197082348599
 21
1005.565938430987
 31
0.0
1001
ACAD
1010
1563.922778005022
1020
1001.741402334205
1030
0.0
  0
LINE
  5
3A92
330
18
100
AcDbEntity
  8
A-BACKING
100
AcDbLine
 10
1565.272082348599
 20
1005.667715126283
 30
0.0
 11
1565.197082348599
 21
1005.742715126283
 31
0.0
1001
ACAD
1010
1563.922778005022
1020
1001.741402334205
1030
0.0
  0
LINE
  5
3A93
330
18
100
AcDbEntity
  8
A-BACKING
100
AcDbLine
 10
1565.272082348599
 20
1005.84449182158
 30
0.0
 11
1565.197082348599
 21
1005.91949182158
 31
0.0
1001
ACAD
1010
1563.922778005022
1020
1001.741402334205
1030
0.0
  0
LINE
  5
3A94
330
18
100
AcDbEntity
  8
A-BACKING
100
AcDbLine
 10
1565.272082348599
 20
1006.021268516876
 30
0.0
 11
1565.197082348599
 21
1006.096268516877
 31
0.0
1001
ACAD
1010
1563.922778005022
1020
1001.741402334205
1030
0.0
  0
LINE
  5
3A95
330
18
100
AcDbEntity
  8
A-BACKING
100
AcDbLine
 10
1565.272082348599
 20
1006.198045212173
 30
0.0
 11
1565.197082348599
 21
1006.273045212173
 31
0.0
1001
ACAD
1010
1563.922778005022
1020
1001.741402334205
1030
0.0
  0
LINE
  5
3A96
330
18
100
AcDbEntity
  8
A-BACKING
100
AcDbLine
 10
1565.272082348599
 20
1006.374821907469
 30
0.0
 11
1565.197082348599
 21
1006.44982190747
 31
0.0
1001
ACAD
1010
1563.922778005022
1020
1001.741402334205
1030
0.0
  0
LINE
  5
3A97
330
18
100
AcDbEntity
  8
A-BACKING
100
AcDbLine
 10
1565.272082348599
 20
1006.551598602766
 30
0.0
 11
1565.197082348599
 21
1006.626598602766
 31
0.0
1001
ACAD
1010
1563.922778005022
1020
1001.741402334205
1030
0.0
  0
LINE
  5
3A98
330
18
100
AcDbEntity
  8
A-BACKING
100
AcDbLine
 10
1565.272082348599
 20
1006.728375298063
 30
0.0
 11
1565.197082348599
 21
1006.803375298063
 31
0.0
1001
ACAD
1010
1563.922778005022
1020
1001.741402334205
1030
0.0
  0
LINE
  5
3A99
330
18
100
AcDbEntity
  8
A-BACKING
100
AcDbLine
 10
1565.272082348599
 20
1006.905151993359
 30
0.0
 11
1565.197082348599
 21
1006.98015199336
 31
0.0
1001
ACAD
1010
1563.922778005022
1020
1001.741402334205
1030
0.0
  0
LINE
  5
3A9A
330
18
100
AcDbEntity
  8
A-BACKING
100
AcDbLine
 10
1565.272082348599
 20
1007.081928688656
 30
0.0
 11
1565.197082348599
 21
1007.156928688656
 31
0.0
1001
ACAD
1010
1563.922778005022
1020
1001.741402334205
1030
0.0
  0
LINE
  5
3A9B
330
18
100
AcDbEntity
  8
A-BACKING
100
AcDbLine
 10
1565.272082348599
 20
1007.258705383953
 30
0.0
 11
1565.197082348599
 21
1007.333705383953
 31
0.0
1001
ACAD
1010
1563.922778005022
1020
1001.741402334205
1030
0.0
  0
LINE
  5
3A9C
330
18
100
AcDbEntity
  8
A-BACKING
100
AcDbLine
 10
1565.272082348599
 20
1007.435482079249
 30
0.0
 11
1565.197082348599
 21
1007.51048207925
 31
0.0
1001
ACAD
1010
1563.922778005022
1020
1001.741402334205
1030
0.0
  0
LINE
  5
3A9D
330
18
100
AcDbEntity
  8
A-BACKING
100
AcDbLine
 10
1565.272082348599
 20
1007.612258774546
 30
0.0
 11
1565.197082348599
 21
1007.687258774546
 31
0.0
1001
ACAD
1010
1563.922778005022
1020
1001.741402334205
1030
0.0
  0
LINE
  5
3A9E
330
18
100
AcDbEntity
  8
A-BACKING
100
AcDbLine
 10
1565.272082348599
 20
1007.789035469843
 30
0.0
 11
1565.197082348599
 21
1007.864035469843
 31
0.0
1001
ACAD
1010
1563.922778005022
1020
1001.741402334205
1030
0.0
  0
LINE
  5
3A9F
330
18
100
AcDbEntity
  8
A-BACKING
100
AcDbLine
 10
1565.272082348599
 20
1007.965812165139
 30
0.0
 11
1565.197082348599
 21
1008.04081216514
 31
0.0
1001
ACAD
1010
1563.922778005022
1020
1001.741402334205
1030
0.0
  0
LINE
  5
3AA0
330
18
100
AcDbEntity
  8
A-BACKING
100
AcDbLine
 10
1565.272082348599
 20
1008.142588860436
 30
0.0
 11
1565.197082348599
 21
1008.217588860436
 31
0.0
1001
ACAD
1010
1563.922778005022
1020
1001.741402334205
1030
0.0
  0
LINE
  5
3AA1
330
18
100
AcDbEntity
  8
A-BACKING
100
AcDbLine
 10
1565.272082348599
 20
1008.319365555733
 30
0.0
 11
1565.197082348599
 21
1008.394365555733
 31
0.0
1001
ACAD
1010
1563.922778005022
1020
1001.741402334205
1030
0.0
  0
LINE
  5
3AA2
330
18
100
AcDbEntity
  8
A-BACKING
100
AcDbLine
 10
1565.272082348599
 20
1008.496142251029
 30
0.0
 11
1565.197082348599
 21
1008.571142251029
 31
0.0
1001
ACAD
1010
1563.922778005022
1020
1001.741402334205
1030
0.0
  0
LINE
  5
3AA3
330
18
100
AcDbEntity
  8
A-BACKING
100
AcDbLine
 10
1565.272082348599
 20
1008.672918946326
 30
0.0
 11
1565.197082348599
 21
1008.747918946326
 31
0.0
1001
ACAD
1010
1563.922778005022
1020
1001.741402334205
1030
0.0
  0
LINE
  5
3AA4
330
18
100
AcDbEntity
  8
A-BACKING
100
AcDbLine
 10
1565.272082348599
 20
1008.849695641622
 30
0.0
 11
1565.197082348599
 21
1008.924695641623
 31
0.0
1001
ACAD
1010
1563.922778005022
1020
1001.741402334205
1030
0.0
  0
LINE
  5
3AA5
330
18
100
AcDbEntity
  8
A-BACKING
100
AcDbLine
 10
1565.272082348599
 20
1009.026472336919
 30
0.0
 11
1565.197082348599
 21
1009.101472336919
 31
0.0
1001
ACAD
1010
1563.922778005022
1020
1001.741402334205
1030
0.0
  0
LINE
  5
3AA6
330
18
100
AcDbEntity
  8
A-BACKING
100
AcDbLine
 10
1565.272082348599
 20
1009.203249032216
 30
0.0
 11
1565.197082348599
 21
1009.278249032216
 31
0.0
1001
ACAD
1010
1563.922778005022
1020
1001.741402334205
1030
0.0
  0
LINE
  5
3AA7
330
18
100
AcDbEntity
  8
A-BACKING
100
AcDbLine
 10
1565.272082348599
 20
1009.380025727512
 30
0.0
 11
1565.197082348599
 21
1009.455025727513
 31
0.0
1001
ACAD
1010
1563.922778005022
1020
1001.741402334205
1030
0.0
  0
LINE
  5
3AA8
330
18
100
AcDbEntity
  8
A-BACKING
100
AcDbLine
 10
1565.272082348599
 20
1009.556802422809
 30
0.0
 11
1565.197082348599
 21
1009.631802422809
 31
0.0
1001
ACAD
1010
1563.922778005022
1020
1001.741402334205
1030
0.0
  0
LINE
  5
3AA9
330
18
100
AcDbEntity
  8
A-BACKING
100
AcDbLine
 10
1565.272082348599
 20
1009.733579118106
 30
0.0
 11
1565.197082348599
 21
1009.808579118106
 31
0.0
1001
ACAD
1010
1563.922778005022
1020
1001.741402334205
1030
0.0
  0
LINE
  5
3AAA
330
18
100
AcDbEntity
  8
A-BACKING
100
AcDbLine
 10
1565.272082348599
 20
1009.910355813402
 30
0.0
 11
1565.197082348599
 21
1009.985355813403
 31
0.0
1001
ACAD
1010
1563.922778005022
1020
1001.741402334205
1030
0.0
  0
LINE
  5
3AAB
330
18
100
AcDbEntity
  8
A-BACKING
100
AcDbLine
 10
1565.272082348599
 20
1010.087132508699
 30
0.0
 11
1565.197082348599
 21
1010.162132508699
 31
0.0
1001
ACAD
1010
1563.922778005022
1020
1001.741402334205
1030
0.0
  0
LINE
  5
3AAC
330
18
100
AcDbEntity
  8
A-BACKING
100
AcDbLine
 10
1565.272082348599
 20
1010.263909203996
 30
0.0
 11
1565.197082348599
 21
1010.338909203996
 31
0.0
1001
ACAD
1010
1563.922778005022
1020
1001.741402334205
1030
0.0
  0
LINE
  5
3AAD
330
18
100
AcDbEntity
  8
A-BACKING
100
AcDbLine
 10
1565.272082348599
 20
1010.440685899292
 30
0.0
 11
1565.197082348599
 21
1010.515685899292
 31
0.0
1001
ACAD
1010
1563.922778005022
1020
1001.741402334205
1030
0.0
  0
LINE
  5
3AAE
330
18
100
AcDbEntity
  8
A-BACKING
100
AcDbLine
 10
1565.272082348599
 20
1010.617462594589
 30
0.0
 11
1565.197082348599
 21
1010.692462594589
 31
0.0
1001
ACAD
1010
1563.922778005022
1020
1001.741402334205
1030
0.0
  0
LINE
  5
3AAF
330
18
100
AcDbEntity
  8
A-BACKING
100
AcDbLine
 10
1565.272082348599
 20
1010.794239289885
 30
0.0
 11
1565.197082348599
 21
1010.869239289886
 31
0.0
1001
ACAD
1010
1563.922778005022
1020
1001.741402334205
1030
0.0
  0
LINE
  5
3AB0
330
18
100
AcDbEntity
  8
A-BACKING
100
AcDbLine
 10
1565.272082348599
 20
1010.971015985182
 30
0.0
 11
1565.197082348599
 21
1011.046015985182
 31
0.0
1001
ACAD
1010
1563.922778005022
1020
1001.741402334205
1030
0.0
  0
LINE
  5
3AB1
330
18
100
AcDbEntity
  8
A-BACKING
100
AcDbLine
 10
1565.272082348599
 20
1011.147792680479
 30
0.0
 11
1565.197082348599
 21
1011.222792680479
 31
0.0
1001
ACAD
1010
1563.922778005022
1020
1001.741402334205
1030
0.0
  0
LINE
  5
3BCA
330
18
100
AcDbEntity
  8
A-NOTE
100
AcDbLine
 10
1567.604995286904
 20
1011.236397955226
 30
0.0
 11
1567.604995286904
 21
1009.114142888333
 31
0.0
  0
LINE
  5
3BCB
330
18
100
AcDbEntity
  8
A-NOTE
100
AcDbLine
 10
1567.604995286903
 20
1008.786894468481
 30
0.0
 11
1567.604995286903
 21
1001.064463072077
 31
0.0
  0
LINE
  5
3BCC
330
18
100
AcDbEntity
  8
A-NOTE
100
AcDbLine
 10
1567.604995286904
 20
1009.114142888333
 30
0.0
 11
1567.519015050189
 21
1009.114142888333
 31
0.0
  0
ARC
  5
3BCD
330
18
100
AcDbEntity
  8
A-NOTE
100
AcDbCircle
 10
1567.519015050189
 20
1009.064142888333
 30
0.0
 40
0.05
100
AcDbArc
 50
90.0
 51
237.6577113480591
  0
LINE
  5
3BCE
330
18
100
AcDbEntity
  8
A-NOTE
100
AcDbLine
 10
1567.492266246617
 20
1009.02189952782
 30
0.0
 11
1567.71772432719
 21
1008.879137828995
 31
0.0
  0
ARC
  5
3BCF
330
18
100
AcDbEntity
  8
A-NOTE
100
AcDbCircle
 10
1567.690975523618
 20
1008.836894468481
 30
0.0
 40
0.05
100
AcDbArc
 50
270.0
 51
57.65771134807555
  0
LINE
  5
3BD0
330
18
100
AcDbEntity
  8
A-NOTE
100
AcDbLine
 10
1567.690975523618
 20
1008.786894468481
 30
0.0
 11
1567.604995286904
 21
1008.786894468481
 31
0.0
  0
LINE
  5
3BD1
330
18
100
AcDbEntity
  8
A-NOTE
100
AcDbLine
 10
1567.604995286904
 20
1001.064463072077
 30
0.0
 11
1567.519015050189
 21
1001.064463072077
 31
0.0
  0
ARC
  5
3BD2
330
18
100
AcDbEntity
  8
A-NOTE
100
AcDbCircle
 10
1567.519015050189
 20
1001.014463072077
 30
0.0
 40
0.05
100
AcDbArc
 50
90.0
 51
237.6577113480591
  0
LINE
  5
3BD3
330
18
100
AcDbEntity
  8
A-NOTE
100
AcDbLine
 10
1567.492266246617
 20
1000.972219711564
 30
0.0
 11
1567.71772432719
 21
1000.829458012739
 31
0.0
  0
ARC
  5
3BD4
330
18
100
AcDbEntity
  8
A-NOTE
100
AcDbCircle
 10
1567.690975523618
 20
1000.787214652225
 30
0.0
 40
0.05
100
AcDbArc
 50
270.0
 51
57.65771134807555
  0
LINE
  5
3BD5
330
18
100
AcDbEntity
  8
A-NOTE
100
AcDbLine
 10
1567.690975523618
 20
1000.737214652225
 30
0.0
 11
1567.604995286904
 21
1000.737214652225
 31
0.0
  0
LINE
  5
3BD6
330
18
100
AcDbEntity
  8
A-NOTE
100
AcDbLine
 10
1567.604995286904
 20
1000.737214652225
 30
0.0
 11
1567.604995286904
 21
999.2795383085286
 31
0.0
  0
LINE
  5
3C6F
330
18
100
AcDbEntity
  8
A-NOTE
100
AcDbLine
 10
1559.866894824105
 20
1010.274582266146
 30
0.0
 11
1558.817601152495
 21
1011.38979444983
 31
0.0
  0
LINE
  5
3C81
330
18
100
AcDbEntity
  8
A-NOTE
100
AcDbLine
 10
1563.993714761157
 20
1010.274582266146
 30
0.0
 11
1559.866894824105
 21
1010.274582266146
 31
0.0
  0
LEADER
  5
3C89
330
18
100
AcDbEntity
  8
A-NOTE
100
AcDbLeader
  3
DIM-1
 76
     3
 10
1557.649615142636
 20
1012.428091642443
 30
0.0
 10
1556.65047040338
 20
1008.670453781152
 30
0.0
 10
1560.292486255853
 20
1008.670453781152
 30
0.0
 77
   256
1001
ACAD
1000
DSTYLE
1002
{
1070
   341
1005
0
1070
     6
1000

1070
   147
1040
0.0625
1070
    77
1070
     0
1002
}
  0
LEADER
  5
3C8A
330
18
100
AcDbEntity
  8
A-NOTE
100
AcDbLeader
  3
DIM-1
 76
     3
 10
1557.762876932682
 20
1013.239764372667
 30
0.0
 10
1558.235505689411
 20
1013.901702108665
 30
0.0
 10
1560.287540816485
 20
1013.901702108665
 30
0.0
 77
   256
1001
ACAD
1000
DSTYLE
1002
{
1070
   341
1005
0
1070
     6
1000

1070
   147
1040
0.0625
1070
    77
1070
     0
1002
}
  0
LEADER
  5
3C8C
330
18
100
AcDbEntity
  8
A-NOTE
100
AcDbLeader
  3
DIM-1
 76
     3
 10
1564.849373762175
 20
1010.047149804435
 30
0.0
 10
1564.021030210341
 20
1008.657925822458
 30
0.0
 10
1563.577888574814
 20
1008.657925822458
 30
0.0
 77
   256
1001
ACAD
1000
DSTYLE
1002
{
1070
   341
1005
0
1070
     6
1000

1070
   147
1040
0.0625
1070
    77
1070
     0
1002
}
  0
LWPOLYLINE
  5
3D4E
330
18
100
AcDbEntity
  8
A-MTL_GRID
100
AcDbPolyline
 90
        5
 70
     0
 43
0.0
 10
1564.947082348599
 20
1010.00589604857
 10
1564.946486254728
 20
1010.009984460625
 42
0.2963606241459967
 10
1564.91703128343
 20
1010.04349958344
 42
-0.3172475355618613
 10
1564.85560623371
 20
1010.119020277336
 10
1564.85560623371
 20
1010.141232278254
  0
LWPOLYLINE
  5
3D4F
330
18
100
AcDbEntity
  8
A-MTL_GRID
100
AcDbPolyline
 90
        5
 70
     0
 43
0.0
 10
1564.947082348599
 20
1007.13089604857
 10
1564.946486254728
 20
1007.134984460625
 42
0.2963606241459967
 10
1564.91703128343
 20
1007.16849958344
 42
-0.3172475355618613
 10
1564.85560623371
 20
1007.244020277336
 10
1564.85560623371
 20
1007.266232278254
  0
LWPOLYLINE
  5
3D50
330
18
100
AcDbEntity
  8
A-MTL_GRID
100
AcDbPolyline
 90
        5
 70
     0
 43
0.0
 10
1564.947082348599
 20
1004.25589604857
 10
1564.946486254728
 20
1004.259984460625
 42
0.2963606241459967
 10
1564.91703128343
 20
1004.29349958344
 42
-0.3172475355618613
 10
1564.85560623371
 20
1004.369020277336
 10
1564.85560623371
 20
1004.391232278254
  0
LWPOLYLINE
  5
3D54
330
18
100
AcDbEntity
  8
A-MTL_GRID
100
AcDbPolyline
 90
        5
 70
     0
 43
0.0
 10
1557.785909126284
 20
1012.265622885277
 10
1557.784120844672
 20
1012.27788812144
 42
0.2963606241459967
 10
1557.695755930778
 20
1012.378433489886
 42
-0.3172475355618613
 10
1557.511480781617
 20
1012.604995571574
 10
1557.511480781617
 20
1012.671631574327
  0
LINE
  5
3D57
330
18
100
AcDbEntity
  8
A-MTL_GRID
100
AcDbLine
 10
1564.947082348599
 20
1007.13089604857
 30
0.0
 11
1564.947082348599
 21
1006.630896048571
 31
0.0
  0
LINE
  5
3D5A
330
18
100
AcDbEntity
  8
A-MTL_GRID
100
AcDbLine
 10
1564.947082348599
 20
1010.00589604857
 30
0.0
 11
1564.947082348599
 21
1009.505896048571
 31
0.0
  0
LINE
  5
3D5D
330
18
100
AcDbEntity
  8
A-MTL_GRID
100
AcDbLine
 10
1564.947082348599
 20
1004.25589604857
 30
0.0
 11
1564.947082348599
 21
1003.755896048571
 31
0.0
  0
LINE
  5
3DD4
330
18
100
AcDbEntity
  8
A-NOTE
100
AcDbLine
 10
1567.604995286903
 20
1002.865271048571
 30
0.0
 11
1568.513933966788
 21
1002.865271048571
 31
0.0
  0
LINE
  5
3DD5
330
18
100
AcDbEntity
  8
A-NOTE
100
AcDbLine
 10
1565.422837847023
 20
1001.740271048571
 30
0.0
 11
1568.513933966788
 21
1001.740271048571
 31
0.0
  0
LINE
  5
3DD6
330
18
100
AcDbEntity
  8
A-NOTE
100
AcDbLine
 10
1568.388933966788
 20
1002.990271048571
 30
0.0
 11
1568.388933966788
 21
1001.615271048571
 31
0.0
  0
INSERT
  5
3DD8
330
18
100
AcDbEntity
  8
A-NOTE
100
AcDbBlockReference
  2
_ARCHTICK
 10
1568.388933966788
 20
1002.865271048571
 30
0.0
 41
0.1875
 42
0.1875
 43
0.1875
 50
90.0
  0
INSERT
  5
3DD9
330
18
100
AcDbEntity
  8
A-NOTE
100
AcDbBlockReference
  2
_ARCHTICK
 10
1568.388933966788
 20
1001.740271048571
 30
0.0
 41
0.1875
 42
0.1875
 43
0.1875
 50
270.0
  0
LINE
  5
3DDA
330
18
100
AcDbEntity
  8
A-NOTE
100
AcDbLine
 10
1565.422837847023
 20
1001.740271048571
 30
0.0
 11
1568.513933966788
 21
1001.740271048571
 31
0.0
  0
LINE
  5
3DDB
330
18
100
AcDbEntity
  8
A-NOTE
100
AcDbLine
 10
1565.422837847023
 20
1000.240271048571
 30
0.0
 11
1568.513933966788
 21
1000.240271048571
 31
0.0
  0
LINE
  5
3DDC
330
18
100
AcDbEntity
  8
A-NOTE
100
AcDbLine
 10
1568.388933966788
 20
1001.865271048571
 30
0.0
 11
1568.388933966788
 21
1000.115271048571
 31
0.0
  0
INSERT
  5
3DDD
330
18
100
AcDbEntity
  8
A-NOTE
100
AcDbBlockReference
  2
_ARCHTICK
 10
1568.388933966788
 20
1001.740271048571
 30
0.0
 41
0.1875
 42
0.1875
 43
0.1875
 50
90.0
  0
INSERT
  5
3DDE
330
18
100
AcDbEntity
  8
A-NOTE
100
AcDbBlockReference
  2
_ARCHTICK
 10
1568.388933966788
 20
1000.240271048571
 30
0.0
 41
0.1875
 42
0.1875
 43
0.1875
 50
270.0
  0
MTEXT
  5
3DDF
330
18
100
AcDbEntity
  8
A-NOTE
100
AcDbMText
 10
1568.018065243675
 20
1000.990271048571
 30
0.0
 40
0.1875
 41
0.0
 71
     5
 72
     1
  1
\A1;1{\H1.000000x;\S1/2;}" MIN.
  7
ROMANS
 11
6.123233995736766E-17
 21
1.0
 31
0.0
  0
MTEXT
  5
3DE0
330
18
100
AcDbEntity
  8
A-NOTE
100
AcDbMText
 10
1568.018065243675
 20
1002.325014370104
 30
0.0
 40
0.1875
 41
0.0
 71
     5
 72
     1
  1
\A1;1\S1/2;" MAX.
  7
ROMANS
 11
6.123233995736766E-17
 21
1.0
 31
0.0
  0
HATCH
  5
3DF8
330
18
100
AcDbEntity
  8
A-HATCH
100
AcDbHatch
 10
0.0
 20
0.0
 30
0.0
210
0.0
220
0.0
230
1.0
  2
AR-CONC
 70
     0
 71
     0
 91
        1
 92
        1
 93
        4
 72
     1
 10
1567.604995286904
 20
999.2795383085286
 11
1565.297837847023
 21
999.2795383085286
 72
     1
 10
1565.297837847023
 20
999.2795383085286
 11
1565.297837847023
 21
1002.865271048571
 72
     1
 10
1565.297837847023
 20
1002.865271048571
 11
1567.604995286904
 21
1002.865271048571
 72
     1
 10
1567.604995286904
 20
1002.865271048571
 11
1567.604995286904
 21
999.2795383085286
 97
        0
 75
     0
 76
     1
 52
0.0
 41
0.2
 77
     0
 78
    13
 53
49.99999999999999
 43
1565.297837847023
 44
999.2795383085286
 45
1.434520365201507
 46
-0.1255042699651902
 79
     2
 49
0.15
 49
-1.65
 53
355.0
 43
1565.297837847023
 44
999.2795383085286
 45
-0.277502667226
 46
1.504384267400024
 79
     2
 49
0.12
 49
-1.32
 53
100.4514
 43
1565.417381207023
 44
999.2690796285285
 45
1.157018763428043
 46
1.378879084121907
 79
     2
 49
0.12748038
 49
-1.402284224
 53
46.1842
 43
1565.297837847023
 44
999.6795383085285
 45
2.134482097251289
 46
-0.3310380286580362
 79
     2
 49
0.225
 49
-2.475
 53
96.6356
 43
1565.475711337023
 44
999.6519516945285
 45
1.869325411097407
 46
1.948235741800884
 79
     2
 49
0.191220576
 49
-2.103426
 53
351.1842
 43
1565.297837847023
 44
999.6795383085285
 45
1.869323890267254
 46
1.948237201850649
 79
     2
 49
0.18
 49
-1.98
 53
21.0
 43
1565.497837847023
 44
999.5795383085285
 45
1.193814104236923
 46
-0.8052377813306777
 79
     2
 49
0.15
 49
-1.65
 53
326.0
 43
1565.497837847023
 44
999.5795383085285
 45
0.4866306638431634
 46
1.450300090093706
 79
     2
 49
0.12
 49
-1.32
 53
71.4514
 43
1565.597322313023
 44
999.5124350965285
 45
1.68044525716298
 46
0.6450609934199049
 79
     2
 49
0.12748038
 49
-1.402284224
 53
37.5
 43
1565.297837847023
 44
999.2795383085286
 45
0.0243197106345813
 46
0.6657877076626231
 79
     6
 49
0.0
 49
-1.304
 49
0.0
 49
-1.34
 49
0.0
 49
-1.325
 53
7.499999999999999
 43
1565.297837847023
 44
999.2795383085286
 45
0.5261390748842972
 46
0.7888234237647205
 79
     6
 49
0.0
 49
-0.764
 49
0.0
 49
-1.274
 49
0.0
 49
-0.505
 53
327.5
 43
1564.851837847023
 44
999.2795383085286
 45
1.067644872344818
 46
-0.0451097434687596
 79
     6
 49
0.0
 49
-0.5
 49
0.0
 49
-1.56
 49
0.0
 49
-2.07
 53
317.5
 43
1564.651837847023
 44
999.2795383085286
 45
1.166372338684772
 46
0.2002099646646353
 79
     6
 49
0.0
 49
-0.65
 49
0.0
 49
-1.036
 49
0.0
 49
-1.47
 98
        1
 10
0.0
 20
0.0
1001
ACAD
1010
1564.023533503446
1020
999.9317067328241
1030
0.0
  0
LEADER
  5
3E0E
330
18
100
AcDbEntity
  8
A-NOTE
100
AcDbLeader
  3
DIM-1
 76
     3
 10
1564.927798192451
 20
1007.035878170284
 30
0.0
 10
1563.285903648724
 20
1007.035878170284
 30
0.0
 10
1562.945611530407
 20
1007.035878170284
 30
0.0
 77
   256
1001
ACAD
1000
DSTYLE
1002
{
1070
   341
1005
0
1070
     6
1000

1070
   147
1040
0.0625
1070
    77
1070
     0
1002
}
  0
MTEXT
  5
3E91
330
18
100
AcDbEntity
  8
A-NOTE
100
AcDbMText
 10
1553.761095697143
 20
1000.777003107907
 30
0.0
 40
0.1873125
 41
4.234512182257921
 71
     1
 72
     5
  1
\A1;{\LAVAILABLE IN TWO SIZES}
  7
ROMANS
  0
MTEXT
  5
3E92
330
18
100
AcDbEntity
  8
A-NOTE
100
AcDbMText
 10
1553.775530659272
 20
1000.439929636495
 30
0.0
 40
0.1873125
 41
4.234512182257921
 71
     1
 72
     5
  1
\A1;48"(W) x 8-1/4"(H) \P96"(W) X 8 1/4"(H)
  7
ROMANS
  0
MTEXT
  5
3E93
330
18
100
AcDbEntity
  8
A-NOTE
 62
     1
100
AcDbMText
 10
1553.790012188434
 20
1001.288320728921
 30
0.0
 40
0.21853125
 41
5.498346853854837
 71
     1
 72
     5
  1
BRICK-IT  DESIGNER METAL GRID PANEL
  7
ROMANS
  0
MTEXT
  5
3E94
330
18
100
AcDbEntity
  8
A-NOTE
100
AcDbMText
 10
1554.973446929933
 20
1001.288349621571
 30
0.0
 40
0.124875
 41
0.3242662609890827
 71
     1
 72
     5
  1
TM
  7
ROMANS
  0
VIEWPORT
  5
172
102
{ACAD_XDICTIONARY
360
427F
102
}
330
15
100
AcDbEntity
 67
     1
  8
0
100
AcDbViewport
 10
4.63125509785327
 20
5.500000076838797
 30
0.0
 40
23.1685754151911
 41
11.08377684233312
 68
     1
 69
     1
1001
ACAD
1000
MVIEW
1002
{
1070
    16
1010
0.0
1020
0.0
1030
0.0
1010
0.0
1020
0.0
1030
1.0
1040
0.0
1040
11.08377684233312
1040
4.63125509785327
1040
5.500000076838797
1040
50.0
1040
0.0
1040
0.0
1070
     0
1070
  1000
1070
     0
1070
     1
1070
     0
1070
     0
1070
     0
1070
     0
1040
0.0
1040
0.0
1040
0.0
1040
0.5
1040
0.5
1040
0.5
1040
0.5
1070
     0
1002
{
1002
}
1002
}
  0
IMAGE
  5
3700
330
15
100
AcDbEntity
 67
     1
  8
A-TITLE
 92
        8
310
0800000000000000
100
AcDbRasterImage
 90
        0
 10
6.612087911465813
 20
0.4412436629029195
 30
0.0
 11
0.001258057909869868
 21
0.0
 31
0.0
 12
7.703382962320721E-20
 22
0.001258057909869869
 32
0.0
 13
1251.0
 23
634.0
340
36FE
 70
     7
280
     0
281
    50
282
    50
283
     0
360
36FF
 71
     1
 91
        2
 14
-0.5
 24
-0.5
 14
1250.5
 24
633.5
  0
TEXT
  5
3762
330
15
100
AcDbEntity
 67
     1
  8
A-NOTE
100
AcDbText
 10
5.92314221701778
 20
-21.15311670196458
 30
0.0
 40
0.25
  1

 50
270.0
  7
ROMANT
100
AcDbText
  0
LWPOLYLINE
  5
3763
330
15
100
AcDbEntity
 67
     1
  8
DEFPOINTS
100
AcDbPolyline
 90
        4
 70
     1
 43
0.0
 10
-0.0000000000000002
 20
0.0
 10
8.5
 20
-0.0000000000000053
 10
8.500000000000002
 20
10.99999999999999
 10
0.0000000000000036
 20
11.0
  0
LWPOLYLINE
  5
3764
330
15
100
AcDbEntity
 67
     1
  8
A1
100
AcDbPolyline
 90
        4
 70
     1
 43
0.0
 10
0.2499999999999998
 20
0.375
 10
8.25
 20
0.3749999999999947
 10
8.250000000000002
 20
10.62499999999999
 10
0.2500000000000035
 20
10.625
  0
LINE
  5
3774
330
15
100
AcDbEntity
 67
     1
  8
A1
100
AcDbLine
 10
8.25
 20
1.313363193949991
 30
0.0
 11
0.25
 21
1.313363193949996
 31
0.0
  0
LINE
  5
377A
330
15
100
AcDbEntity
 67
     1
  8
A1
100
AcDbLine
 10
6.499153996313808
 20
0.3749999999999947
 30
0.0
 11
6.499153996313808
 21
1.313363193949992
 31
0.0
  0
VIEWPORT
  5
3792
102
{ACAD_XDICTIONARY
360
3793
102
}
330
15
100
AcDbEntity
 67
     1
  8
DEFPOINTS
100
AcDbViewport
 10
4.25
 20
5.969181596974989
 30
0.0
 40
8.0
 41
9.311636806049997
 68
     2
 69
     2
1001
ACAD
1000
MVIEW
1002
{
1070
    16
1010
0.0
1020
0.0
1030
0.0
1010
0.0
1020
0.0
1030
1.0
1040
0.0
1040
18.62327363053755
1040
1561.280920407221
1040
1007.656887284895
1040
50.0
1040
0.0
1040
0.0
1070
     0
1070
  5000
1070
     0
1070
     0
1070
     0
1070
     0
1070
     0
1070
     0
1040
0.0
1040
0.0
1040
0.0
1040
2.0
1040
2.0
1040
0.5
1040
0.5
1070
     0
1002
{
1002
}
1002
}
  0
LINE
  5
3B7A
330
15
100
AcDbEntity
 67
     1
  8
A1
100
AcDbLine
 10
0.2499999999999998
 20
0.708
 30
0.0
 11
6.499153996313808
 21
0.708
 31
0.0
  0
LINE
  5
3B7B
330
15
100
AcDbEntity
 67
     1
  8
A1
100
AcDbLine
 10
0.2499999999999998
 20
0.9159999999999999
 30
0.0
 11
6.499153996313808
 21
0.9159999999999999
 31
0.0
  0
LINE
  5
3B7C
330
15
100
AcDbEntity
 67
     1
  8
A1
100
AcDbLine
 10
3.374576998156903
 20
0.708
 30
0.0
 11
3.374576998156904
 21
0.3749999999999979
 31
0.0
  0
MTEXT
  5
3B7D
330
15
100
AcDbEntity
 67
     1
  8
A-NOTE
100
AcDbMText
 10
0.3006998111790509
 20
1.221361811478049
 30
0.0
 40
0.1875
 41
5.48741680826955
 71
     1
 72
     5
  1
BASE DETAIL FOR BRICK VENEER
  7
A
  0
MTEXT
  5
3B82
330
15
100
AcDbEntity
 67
     1
  8
A-NOTE
100
AcDbMText
 10
0.3082078248633806
 20
0.6534990150487534
 30
0.0
 40
0.1875
 41
5.48741680826955
 71
     1
 72
     5
  1
MOD4883-A1
  7
A
  0
MTEXT
  5
3B83
330
15
100
AcDbEntity
 67
     1
  8
A-NOTE
100
AcDbMText
 10
4.672633056487534
 20
0.6201147220973109
 30
0.0
 40
0.125
 41
1.408208086233465
 71
     1
 72
     5
  1
09062-MOD4883-A1-PG001
  7
A
  0
TEXT
  5
3B84
330
15
100
AcDbEntity
 67
     1
  8
A-NOTE
100
AcDbText
 10
0.2929968548725714
 20
0.7797463152543971
 30
0.0
 40
0.078125
  1
Scale: 1" = 2"
  7
A
 11
0.2929968548725714
 21
0.8188088152543971
 31
0.0
100
AcDbText
 73
     2
  0
TEXT
  5
3B85
330
15
100
AcDbEntity
 67
     1
  8
A-NOTE
100
AcDbText
 10
5.551176212856541
 20
0.7797463152543971
 30
0.0
 40
0.078125
  1
Date: 11-06-2009
  7
A
 11
5.551176212856541
 21
0.8188088152543971
 31
0.0
100
AcDbText
 73
     2
  0
ENDSEC
  0
SECTION
  2
OBJECTS
  0
DICTIONARY
  5
C
330
0
100
AcDbDictionary
  3
ABNSLEADERTOOLS
350
A04
  3
ACAD_COLOR
350
2069
  3
ACAD_GROUP
350
D
  3
ACAD_IMAGE_DICT
350
36F7
  3
ACAD_IMAGE_VARS
350
36F8
  3
ACAD_LAYOUT
350
B15
  3
ACAD_MATERIAL
350
203F
  3
ACAD_MLEADERSTYLE
350
208E
  3
ACAD_MLINESTYLE
350
1B
  3
ACAD_PLOTSETTINGS
350
B16
  3
ACAD_SCALELIST
350
206C
  3
ACAD_VISUALSTYLE
350
2058
  3
ACADDIM
350
3C8B
  3
ACDB_RECOMPOSE_DATA
350
209C
  3
ACDBHEADERROUNDTRIPXREC
350
42FB
  3
ACDBVARIABLEDICTIONARY
350
B76
  3
AEC_PROPERTY_SET_DEFS
350
CAB
  3
BNS_SELSET
350
102
  3
BNS_VARIABLES
350
21A
  3
DWGPROPS
350
431F
  0
DICTIONARY
  5
4320
330
8
100
AcDbDictionary
280
     1
  3
ACAD_XREC_ROUNDTRIP
360
4321
  0
DICTIONARY
  5
C90
330
2
100
AcDbDictionary
280
     1
  3
ACAD_LAYERFILTERS
360
4273
  3
ACAD_LAYERSTATES
360
156B
  3
ACLYDICTIONARY
360
4272
  0
DICTIONARY
  5
2283
330
18
100
AcDbDictionary
280
     1
  3
ACAD_SORTENTS
360
2284
  0
DICTIONARY
  5
378F
330
15
100
AcDbDictionary
280
     1
  3
ACAD_SORTENTS
360
3790
  0
DICTIONARY
  5
427F
330
172
100
AcDbDictionary
280
     1
  3
ACAD_XREC_ROUNDTRIP
360
4280
  0
IMAGEDEF_REACTOR
  5
36FF
330
3700
100
AcDbRasterImageDefReactor
 90
        2
330
3700
  0
DICTIONARY
  5
3793
330
3792
100
AcDbDictionary
280
     1
  3
ACAD_XREC_ROUNDTRIP
360
4290
  3
ASDK_XREC_ANNOTATION_SCALE_INFO
360
3794
  0
XRECORD
  5
A04
102
{ACAD_REACTORS
330
C
102
}
330
C
100
AcDbXrecord
1001
AbnsLeaderTools
1071
 97072200
1070
     0
1070
     0
1070
     0
1070
     0
1070
     1
1070
     3
1070
     1
1070
     3
1070
     0
1070
     0
1070
     0
1070
     0
1071
        0
  0
DICTIONARY
  5
2069
102
{ACAD_REACTORS
330
C
102
}
330
C
100
AcDbDictionary
  0
DICTIONARY
  5
D
102
{ACAD_REACTORS
330
C
102
}
330
C
100
AcDbDictionary
  0
DICTIONARY
  5
36F7
102
{ACAD_REACTORS
330
C
102
}
330
C
100
AcDbDictionary
  3
BRICK-IT_LOGO
350
36FE
  0
RASTERVARIABLES
  5
36F8
102
{ACAD_REACTORS
330
C
102
}
330
C
100
AcDbRasterVariables
 90
        0
 70
     0
 71
     1
 72
     5
  0
DICTIONARY
  5
B15
102
{ACAD_REACTORS
330
C
102
}
330
C
100
AcDbDictionary
  0
DICTIONARY
  5
203F
102
{ACAD_REACTORS
330
C
102
}
330
C
100
AcDbDictionary
  3
BYBLOCK
350
2048
  3
BYLAYER
350
2040
  3
GLOBAL
350
2050
  0
DICTIONARY
  5
208E
102
{ACAD_REACTORS
330
C
102
}
330
C
100
AcDbDictionary
  3
STANDARD
350
208F
  0
DICTIONARY
  5
1B
102
{ACAD_REACTORS
330
C
102
}
330
C
100
AcDbDictionary
  3
STANDARD
350
1C
  0
DICTIONARY
  5
B16
102
{ACAD_REACTORS
330
C
102
}
330
C
100
AcDbDictionary
  3
8.5X11
350
2B7E
  3
PDF2436
350
270F
  3
PLOT2436
350
26FD
  3
PRINT11X17
350
2720
  0
DICTIONARY
  5
206C
102
{ACAD_REACTORS
330
C
102
}
330
C
100
AcDbDictionary
  3
*A1
350
3E5F
  3
*A10
350
3E77
  3
*A11
350
3E78
  3
*A12
350
3E68
  3
*A13
350
3E79
  3
*A14
350
3E7A
  3
*A15
350
3E7B
  3
*A16
350
3E61
  3
*A17
350
3E7C
  3
*A18
350
3E7D
  3
*A19
350
3E7E
  3
*A2
350
3E70
  3
*A20
350
3E7F
  3
*A21
350
3E80
  3
*A22
350
3E81
  3
*A23
350
3E69
  3
*A24
350
3E82
  3
*A25
350
3E83
  3
*A26
350
3E84
  3
*A27
350
3E85
  3
*A28
350
3E62
  3
*A29
350
3E86
  3
*A3
350
3E71
  3
*A30
350
3E63
  3
*A31
350
3E64
  3
*A32
350
3E65
  3
*A33
350
3E66
  3
*A34
350
3E6A
  3
*A35
350
3E67
  3
*A36
350
3E6B
  3
*A37
350
3E6C
  3
*A38
350
3E6D
  3
*A39
350
3E6E
  3
*A4
350
3E60
  3
*A40
350
3E6F
  3
*A5
350
3E72
  3
*A6
350
3E73
  3
*A7
350
3E74
  3
*A8
350
3E75
  3
*A9
350
3E76
  3
A0
350
206D
  3
A1
350
206E
  3
A2
350
206F
  3
A3
350
2070
  3
A4
350
2071
  3
A5
350
2072
  3
A6
350
2073
  3
A7
350
2074
  3
A8
350
2075
  3
A9
350
2076
  3
B0
350
2077
  3
B1
350
2078
  3
B2
350
2079
  3
B3
350
207A
  3
B4
350
207B
  3
B5
350
207C
  3
B6
350
207D
  3
B7
350
207E
  3
B8
350
207F
  3
B9
350
2080
  3
C0
350
2081
  3
C1
350
2082
  3
C2
350
2083
  3
C3
350
2084
  3
C4
350
2085
  3
C5
350
2086
  3
C6
350
2087
  3
C7
350
2088
  3
C8
350
2089
  3
C9
350
208A
  3
D0
350
208B
  3
D1
350
208C
  3
D2
350
208D
  0
DICTIONARY
  5
2058
102
{ACAD_REACTORS
330
C
102
}
330
C
100
AcDbDictionary
  3
2DWIREFRAME
350
205E
  3
3D_HIDDEN
350
2060
  3
3DWIREFRAME
350
205F
  3
BASIC
350
205D
  3
BRIGHTEN
350
2064
  3
COLORCHANGE
350
2068
  3
CONCEPTUAL
350
2061
  3
DIM
350
2063
  3
FACEPATTERN
350
2067
  3
FLAT
350
2059
  3
FLATWITHEDGES
350
205A
  3
GOURAUD
350
205B
  3
GOURAUDWITHEDGES
350
205C
  3
LINEPATTERN
350
2066
  3
REALISTIC
350
2062
  3
THICKEN
350
2065
  0
XRECORD
  5
3C8B
102
{ACAD_REACTORS
330
C
102
}
330
C
100
AcDbXrecord
 90
   990106
  3

 60
     4
 61
     0
 62
     1
 63
     3
 64
     0
 65
     0
 66
     0
 67
     3
 68
     1
 69
     0
 70
     0
 71
     0
 72
     0
 40
0.0
170
     0
  0
XRECORD
  5
209C
102
{ACAD_REACTORS
330
C
102
}
330
C
100
AcDbXrecord
 90
        1
330
206B
  0
DICTIONARY
  5
42FB
102
{ACAD_REACTORS
330
C
102
}
330
C
100
AcDbDictionary
  3
CEPSNTYPE
350
4304
  3
COLORDICT
350
431D
  3
DIMSTYLEDATA
350
431A
  3
FINGERPRINTGUID
350
4305
  3
HYPERLINKBASE
350
42FE
  3
INSUNITS
350
4303
  3
LAYOUTDICT
350
4300
  3
LWETCUNION
350
4302
  3
MATERIALDICT
350
431E
  3
PLOTSETDICT
350
4301
  3
PSVPSCALE
350
4307
  3
PUCSBASE
350
430A
  3
PUCSORGBACK
350
4310
  3
PUCSORGBOTTOM
350
430C
  3
PUCSORGFRONT
350
430F
  3
PUCSORGLEFT
350
430D
  3
PUCSORGRIGHT
350
430E
  3
PUCSORGTOP
350
430B
  3
PUCSORTHOREF
350
4308
  3
PUCSORTHOVIEW
350
4309
  3
STYLESHEET
350
42FF
  3
TSTACKALIGN
350
42FC
  3
TSTACKSIZE
350
42FD
  3
UCSBASE
350
4313
  3
UCSORGBACK
350
4319
  3
UCSORGBOTTOM
350
4315
  3
UCSORGFRONT
350
4318
  3
UCSORGLEFT
350
4316
  3
UCSORGRIGHT
350
4317
  3
UCSORGTOP
350
4314
  3
UCSORTHOREF
350
4311
  3
UCSORTHOVIEW
350
4312
  3
VERSIONGUID
350
4306
  0
DICTIONARY
  5
B76
102
{ACAD_REACTORS
330
C
102
}
330
C
100
AcDbDictionary
  3
CANNOSCALE
350
431C
  3
CMLEADERSTYLE
350
209E
  3
DIMASSOC
350
B77
  3
HIDETEXT
350
42B3
  3
INDEXCTL
350
226D
  3
LAYEREVAL
350
20A2
  3
LIGHTINGUNITS
350
20A1
  3
MSLTSCALE
350
209F
  3
SORTENTS
350
226C
  0
DICTIONARY
  5
CAB
102
{ACAD_REACTORS
330
C
102
}
330
C
100
AcDbDictionary
  0
DICTIONARY
  5
102
102
{ACAD_REACTORS
330
C
102
}
330
C
100
AcDbDictionary
  3
BNS_SS01
350
986
  3
BNS_SS02
350
987
  0
DICTIONARY
  5
21A
102
{ACAD_REACTORS
330
C
102
}
330
C
100
AcDbDictionary
  3
BNS_EDITTIME_TOTAL
350
B10
  0
XRECORD
  5
431F
102
{ACAD_REACTORS
330
C
102
}
330
C
100
AcDbXrecord
  1
DWGPROPS COOKIE
  2

  3

  4

  6

  7

  8
ed
  9

300
=
301
=
302
=
303
=
304
=
305
=
306
=
307
=
308
=
309
=
 40
0.0
 41
2455134.618031493
 42
2455169.852632187
  1

 90
        0
  0
XRECORD
  5
4321
102
{ACAD_REACTORS
330
4320
102
}
330
4320
100
AcDbXrecord
102
VTR_0.000_0.000_1.000_1.000_VISUALSTYLE
340
205E
102
VTR_0.000_0.000_1.000_1.000_GRIDDISPLAY
 70
     3
102
VTR_0.000_0.000_1.000_1.000_GRIDMAJOR
 70
     5
102
VTR_0.000_0.000_1.000_1.000_DEFAULTLIGHTING
280
     1
102
VTR_0.000_0.000_1.000_1.000_DEFAULTLIGHTINGTYPE
 70
     1
102
VTR_0.000_0.000_1.000_1.000_BRIGHTNESS
141
0.0
102
VTR_0.000_0.000_1.000_1.000_CONTRAST
142
0.0
  0
DICTIONARY
  5
4273
102
{ACAD_REACTORS
330
C90
102
}
330
C90
100
AcDbDictionary
  0
DICTIONARY
  5
156B
102
{ACAD_REACTORS
330
C90
102
}
330
C90
100
AcDbDictionary
  0
DICTIONARY
  5
4272
102
{ACAD_REACTORS
330
C90
102
}
330
C90
100
AcDbDictionary
1001
ACAD
1000
<All
  0
SORTENTSTABLE
  5
2284
102
{ACAD_REACTORS
330
2283
102
}
330
2283
100
AcDbSortentsTable
330
18
331
0
  5
3AAE
331
2B9B
  5
2BA5
331
2BA5
  5
2B9B
331
2BEB
  5
2C6B
331
2BEC
  5
2C6C
331
2BED
  5
2C6D
331
2BEE
  5
2C6F
331
2BF0
  5
2C70
331
2BF1
  5
2C71
331
2BF7
  5
2C73
331
2C07
  5
2C78
331
2C08
  5
2C7B
331
2C09
  5
2C89
331
2C0E
  5
2C7C
331
2C0F
  5
2C79
331
2C10
  5
2C77
331
2C2B
  5
2BEB
331
2C60
  5
2CFB
331
2C61
  5
2CF6
331
2C62
  5
2CF7
331
2C67
  5
2D60
331
2C68
  5
2DCB
331
2C69
  5
2DCC
331
2C6A
  5
2DD8
331
2C6B
  5
3512
331
2C6C
  5
3513
331
2C6D
  5
3517
331
2C6F
  5
3533
331
2C70
  5
3535
331
2C73
  5
362C
331
2C77
  5
362D
331
2C78
  5
3630
331
2C7B
  5
3631
331
34DE
  5
363C
331
3506
  5
363D
331
3507
  5
363E
331
3508
  5
363F
331
3509
  5
3640
331
350A
  5
3641
331
350B
  5
3642
331
3511
  5
3673
331
3512
  5
3679
331
3514
  5
367A
331
3515
  5
2C6A
331
3517
  5
367C
331
3533
  5
367D
331
3535
  5
367E
331
3596
  5
3695
331
3597
  5
3696
331
3598
  5
3698
331
35ED
  5
3A96
331
35EE
  5
3A97
331
35F1
  5
3BCA
331
35F3
  5
3BCB
331
35FB
  5
3A98
331
35FC
  5
3A99
331
35FD
  5
3A9C
331
35FE
  5
3A9D
331
35FF
  5
3A9E
331
3600
  5
3AA4
331
3601
  5
3AA7
331
3602
  5
3AA9
331
3633
  5
3A95
331
3634
  5
3903
331
3635
  5
3905
331
3636
  5
3906
331
3637
  5
391C
331
3638
  5
3A46
331
3639
  5
3A47
331
363A
  5
3A51
331
363B
  5
3A52
331
363C
  5
3A53
331
363D
  5
3A54
331
363E
  5
3A55
331
363F
  5
3A56
331
3640
  5
3A57
331
3641
  5
3A58
331
3642
  5
3A59
331
3643
  5
3A5F
331
3644
  5
3A78
331
3645
  5
3A79
331
3646
  5
3A7A
331
3647
  5
3A7B
331
3648
  5
3A7C
331
3649
  5
3A7D
331
364A
  5
3A7E
331
364B
  5
3A7F
331
364C
  5
3A80
331
364D
  5
3A81
331
364E
  5
3A82
331
364F
  5
3A83
331
3650
  5
3A84
331
3651
  5
3A85
331
3652
  5
3A86
331
3653
  5
3A87
331
3654
  5
3A88
331
3655
  5
3A89
331
3656
  5
3A8A
331
3657
  5
3A8B
331
3658
  5
3A8C
331
3659
  5
3A8D
331
365A
  5
3A8E
331
365B
  5
3A8F
331
365C
  5
3A90
331
365D
  5
3A91
331
365E
  5
3A92
331
365F
  5
3A93
331
3660
  5
3A94
331
3661
  5
38F4
331
3662
  5
38F7
331
3663
  5
38F8
331
3664
  5
38BA
331
3665
  5
38D6
331
3666
  5
38D8
331
3667
  5
38F0
331
3668
  5
3896
331
366A
  5
3897
331
366B
  5
38A7
331
366C
  5
37D8
331
366D
  5
37D9
331
3674
  5
36BB
331
3675
  5
37D4
331
3676
  5
369A
331
3677
  5
369B
331
3678
  5
36B1
331
3679
  5
36B7
331
367D
  5
3BCE
331
3695
  5
2BEE
331
3696
  5
2BF1
331
36BC
  5
37D7
331
37D4
  5
3BCF
331
37D8
  5
3BD0
331
37D9
  5
3BD1
331
3896
  5
362F
331
38A7
  5
3BD2
331
38D9
  5
3BD3
331
38F4
  5
3BD4
331
3906
  5
3BD5
331
3A51
  5
2C60
331
3A52
  5
2C61
331
3A53
  5
2C62
331
3A54
  5
2C67
331
3A55
  5
2C68
331
3A56
  5
2C09
331
3A57
  5
2C0E
331
3A58
  5
2C0F
331
3A59
  5
2C10
331
3A5A
  5
2C2A
331
3A7A
  5
356E
331
3A7B
  5
3595
331
3A7C
  5
3596
331
3A7D
  5
3597
331
3A7E
  5
3598
331
3A7F
  5
35AE
331
3A80
  5
35B0
331
3A81
  5
35B1
331
3A82
  5
35B2
331
3A83
  5
35B3
331
3A84
  5
35F5
331
3A85
  5
35F6
331
3A86
  5
35F7
331
3A87
  5
35FE
331
3A88
  5
3601
331
3A89
  5
3602
331
3A8A
  5
3603
331
3A8B
  5
3604
331
3A8C
  5
3605
331
3A8D
  5
3606
331
3A8E
  5
3607
331
3A8F
  5
3608
331
3A90
  5
3609
331
3A91
  5
360A
331
3A92
  5
360B
331
3A93
  5
360C
331
3A94
  5
360D
331
3A95
  5
360E
331
3A96
  5
360F
331
3A97
  5
3610
331
3A98
  5
3611
331
3A99
  5
3612
331
3A9A
  5
3613
331
3A9B
  5
3614
331
3A9C
  5
3615
331
3A9D
  5
3616
331
3A9E
  5
3617
331
3A9F
  5
3618
331
3AA0
  5
3619
331
3AA1
  5
361A
331
3AA2
  5
361B
331
3AA3
  5
361C
331
3AA4
  5
361D
331
3AA5
  5
361E
331
3AA6
  5
361F
331
3AA7
  5
3620
331
3AA8
  5
3621
331
3AA9
  5
3622
331
3AAA
  5
3623
331
3AAB
  5
3624
331
3AAC
  5
3625
331
3AAD
  5
3626
331
3AAE
  5
3627
331
3AAF
  5
3628
331
3AB0
  5
3629
331
3AB1
  5
362A
331
3BCA
  5
3BD6
331
3BCB
  5
3C04
331
3BCC
  5
3C6E
331
3BCD
  5
3C78
331
3BCE
  5
3C89
331
3BCF
  5
3C8A
331
3BD0
  5
3C8C
331
3BD1
  5
3D4E
331
3BD2
  5
3D4F
331
3BD3
  5
3D50
331
3BD4
  5
3D54
331
3BD5
  5
3D55
331
3BD6
  5
3C62
331
3C6F
  5
3BCD
331
3C81
  5
3BCC
331
3C89
  5
3D5B
331
3C8A
  5
3DD4
331
3C8C
  5
3DD5
331
3D4E
  5
3DD6
331
3D4F
  5
3DD8
331
3D50
  5
3DD9
331
3D54
  5
3DDA
331
3D57
  5
2C2B
331
3D5A
  5
2C08
331
3D5D
  5
2C69
331
3DD4
  5
3DDB
331
3DD5
  5
3DDC
331
3DD6
  5
3DDD
331
3DD8
  5
3DDE
331
3DD9
  5
3DDF
331
3DDA
  5
3634
331
3DDB
  5
3635
331
3DDC
  5
3636
331
3DDD
  5
3637
331
3DDE
  5
3638
331
3DDF
  5
363B
331
3DE0
  5
3DE0
331
3DF8
  5
3DF7
  0
SORTENTSTABLE
  5
3790
102
{ACAD_REACTORS
330
378F
102
}
330
378F
100
AcDbSortentsTable
330
15
331
172
  5
3700
331
3700
  5
3762
331
3762
  5
3763
331
3763
  5
3764
331
3764
  5
376A
331
3774
  5
3775
331
377A
  5
377F
331
3792
  5
172
331
3B7A
  5
3B7A
331
3B7B
  5
3B7B
331
3B7C
  5
3B7C
331
3B7D
  5
3B7D
331
3B82
  5
3B82
331
3B83
  5
3B83
331
3B84
  5
3B84
331
3B85
  5
3B85
  0
XRECORD
  5
4280
102
{ACAD_REACTORS
330
427F
102
}
330
427F
100
AcDbXrecord
102
VISUALSTYLE
340
205E
102
GRIDDISPLAY
 70
     0
102
GRIDMAJOR
 70
     5
102
DEFAULTLIGHTING
280
     1
102
DEFAULTLIGHTINGTYPE
 70
     1
102
BRIGHTNESS
141
0.0
102
CONTRAST
142
0.0
  0
XRECORD
  5
4290
102
{ACAD_REACTORS
330
3793
102
}
330
3793
100
AcDbXrecord
102
VISUALSTYLE
340
205E
102
GRIDDISPLAY
 70
     3
102
GRIDMAJOR
 70
     5
102
DEFAULTLIGHTING
280
     1
102
DEFAULTLIGHTINGTYPE
 70
     1
102
BRIGHTNESS
141
0.0
102
CONTRAST
142
0.0
  0
XRECORD
  5
3794
102
{ACAD_REACTORS
330
3793
102
}
330
3793
100
AcDbXrecord
 90
        1
340
206D
  0
IMAGEDEF
  5
36FE
102
{ACAD_REACTORS
330
36F7
330
36FF
102
}
330
36F7
100
AcDbRasterImageDef
 90
        0
  1
S:\proj\00_Brick It\Brick-It logo.jpg
 10
1251.0
 20
634.0
 11
0.3527777777777777
 21
0.3527777777777777
280
     1
281
     5
  0
MATERIAL
  5
2048
102
{ACAD_REACTORS
330
203F
102
}
102
{ACAD_XDICTIONARY
360
4322
102
}
330
203F
100
AcDbMaterial
  1
ByBlock
 72
     0
 73
     2
 43
0.0208333333333333
 43
0.0
 43
0.0
 43
0.0
 43
0.0
 43
0.0208333333333333
 43
0.0
 43
0.0
 43
0.0
 43
0.0
 43
1.0
 43
0.0
 43
0.0
 43
0.0
 43
0.0
 43
1.0
 77
     0
 78
     2
 47
0.0208333333333333
 47
0.0
 47
0.0
 47
0.0
 47
0.0
 47
0.0208333333333333
 47
0.0
 47
0.0
 47
0.0
 47
0.0
 47
1.0
 47
0.0
 47
0.0
 47
0.0
 47
0.0
 47
1.0
171
     0
172
     2
 49
0.0208333333333333
 49
0.0
 49
0.0
 49
0.0
 49
0.0
 49
0.0208333333333333
 49
0.0
 49
0.0
 49
0.0
 49
0.0
 49
1.0
 49
0.0
 49
0.0
 49
0.0
 49
0.0
 49
1.0
175
     0
176
     2
142
0.0208333333333333
142
0.0
142
0.0
142
0.0
142
0.0
142
0.0208333333333333
142
0.0
142
0.0
142
0.0
142
0.0
142
1.0
142
0.0
142
0.0
142
0.0
142
0.0
142
1.0
179
     0
270
     2
144
0.0208333333333333
144
0.0
144
0.0
144
0.0
144
0.0
144
0.0208333333333333
144
0.0
144
0.0
144
0.0
144
0.0
144
1.0
144
0.0
144
0.0
144
0.0
144
0.0
144
1.0
274
     2
147
0.0208333333333333
147
0.0
147
0.0
147
0.0
147
0.0
147
0.0208333333333333
147
0.0
147
0.0
147
0.0
147
0.0
147
1.0
147
0.0
147
0.0
147
0.0
147
0.0
147
1.0
  0
MATERIAL
  5
2040
102
{ACAD_REACTORS
330
203F
102
}
102
{ACAD_XDICTIONARY
360
4324
102
}
330
203F
100
AcDbMaterial
  1
ByLayer
 72
     0
 73
     2
 43
0.0208333333333333
 43
0.0
 43
0.0
 43
0.0
 43
0.0
 43
0.0208333333333333
 43
0.0
 43
0.0
 43
0.0
 43
0.0
 43
1.0
 43
0.0
 43
0.0
 43
0.0
 43
0.0
 43
1.0
 77
     0
 78
     2
 47
0.0208333333333333
 47
0.0
 47
0.0
 47
0.0
 47
0.0
 47
0.0208333333333333
 47
0.0
 47
0.0
 47
0.0
 47
0.0
 47
1.0
 47
0.0
 47
0.0
 47
0.0
 47
0.0
 47
1.0
171
     0
172
     2
 49
0.0208333333333333
 49
0.0
 49
0.0
 49
0.0
 49
0.0
 49
0.0208333333333333
 49
0.0
 49
0.0
 49
0.0
 49
0.0
 49
1.0
 49
0.0
 49
0.0
 49
0.0
 49
0.0
 49
1.0
175
     0
176
     2
142
0.0208333333333333
142
0.0
142
0.0
142
0.0
142
0.0
142
0.0208333333333333
142
0.0
142
0.0
142
0.0
142
0.0
142
1.0
142
0.0
142
0.0
142
0.0
142
0.0
142
1.0
179
     0
270
     2
144
0.0208333333333333
144
0.0
144
0.0
144
0.0
144
0.0
144
0.0208333333333333
144
0.0
144
0.0
144
0.0
144
0.0
144
1.0
144
0.0
144
0.0
144
0.0
144
0.0
144
1.0
274
     2
147
0.0208333333333333
147
0.0
147
0.0
147
0.0
147
0.0
147
0.0208333333333333
147
0.0
147
0.0
147
0.0
147
0.0
147
1.0
147
0.0
147
0.0
147
0.0
147
0.0
147
1.0
  0
MATERIAL
  5
2050
102
{ACAD_REACTORS
330
203F
102
}
102
{ACAD_XDICTIONARY
360
4326
102
}
330
203F
100
AcDbMaterial
  1
Global
 72
     0
 73
     2
 43
0.0208333333333333
 43
0.0
 43
0.0
 43
0.0
 43
0.0
 43
0.0208333333333333
 43
0.0
 43
0.0
 43
0.0
 43
0.0
 43
1.0
 43
0.0
 43
0.0
 43
0.0
 43
0.0
 43
1.0
 77
     0
 78
     2
 47
0.0208333333333333
 47
0.0
 47
0.0
 47
0.0
 47
0.0
 47
0.0208333333333333
 47
0.0
 47
0.0
 47
0.0
 47
0.0
 47
1.0
 47
0.0
 47
0.0
 47
0.0
 47
0.0
 47
1.0
171
     0
172
     2
 49
0.0208333333333333
 49
0.0
 49
0.0
 49
0.0
 49
0.0
 49
0.0208333333333333
 49
0.0
 49
0.0
 49
0.0
 49
0.0
 49
1.0
 49
0.0
 49
0.0
 49
0.0
 49
0.0
 49
1.0
175
     0
176
     2
142
0.0208333333333333
142
0.0
142
0.0
142
0.0
142
0.0
142
0.0208333333333333
142
0.0
142
0.0
142
0.0
142
0.0
142
1.0
142
0.0
142
0.0
142
0.0
142
0.0
142
1.0
179
     0
270
     2
144
0.0208333333333333
144
0.0
144
0.0
144
0.0
144
0.0
144
0.0208333333333333
144
0.0
144
0.0
144
0.0
144
0.0
144
1.0
144
0.0
144
0.0
144
0.0
144
0.0
144
1.0
274
     2
147
0.0208333333333333
147
0.0
147
0.0
147
0.0
147
0.0
147
0.0208333333333333
147
0.0
147
0.0
147
0.0
147
0.0
147
1.0
147
0.0
147
0.0
147
0.0
147
0.0
147
1.0
  0
ACAD_PROXY_OBJECT
  5
208F
102
{ACAD_REACTORS
330
208E
102
}
330
208E
100
AcDbProxyObject
 90
      499
 91
      511
 93
      610
310
40901902A4063FBFFFFFE056BD1B81E855B9FC0AD7A3703D0AD73F4214DD185B99185C9900AD7A3703D0AC73F90141901A02B5E8DC0F42B1CFC02B5E8DC0F42B1CFE5764000000000000300FC0
340
12
340
0
340
F
340
0
 94
        0
1001
ACAD_MLEADERVER
1070
     2
  0
MLINESTYLE
  5
1C
102
{ACAD_REACTORS
330
1B
102
}
330
1B
100
AcDbMlineStyle
  2
STANDARD
 70
     0
  3

 62
   256
 51
90.0
 52
90.0
 71
     2
 49
0.5
 62
   256
  6
BYLAYER
 49
-0.5
 62
   256
  6
BYLAYER
  0
PLOTSETTINGS
  5
2B7E
102
{ACAD_REACTORS
330
B16
102
}
330
B16
100
AcDbPlotSettings
  1
8.5x11
  2
Kyocera Mita KM-1650 KX
  4
Letter
  6

 40
4.984749794006348
 41
5.069418907165527
 42
5.06939697265625
 43
4.9847412109375
 44
215.8999938964844
 45
279.3999938964844
 46
-5.027076435089054
 47
-5.02708311080938
 48
0.0000000000000036
 49
-0.0000000000000053
140
8.5
141
11.0
142
1.0
143
1.0
 70
  2724
 72
     0
 73
     0
 74
     4
  7
SWAN11X17.ctb
 75
     0
147
0.7367424736214094
148
-0.0000000000000902
149
0.0000000000001354
1001
ACAD_PSEXT
1000
Kyocera Mita KM-1650 KX
1000
Kyocera Mita KM-1650 KX
1000
IP_192.168.1.188
1000

1070
     0
  0
PLOTSETTINGS
  5
270F
102
{ACAD_REACTORS
330
B16
102
}
330
B16
100
AcDbPlotSettings
  1
PDF2436
  2
PDF-XChange Lite 3.0.pc3
  4
User265
  6

 40
3.174999952316284
 41
3.174999952316284
 42
3.17498779296875
 43
3.17498779296875
 44
914.3999633789062
 45
609.5999755859375
 46
0.0
 47
0.0
 48
0.0
 49
0.0
140
36.00000000000001
141
24.0
142
1.0
143
1.0
 70
  2736
 72
     0
 73
     0
 74
     4
  7
swan2436.ctb
 75
    16
147
1.0
148
0.0
149
0.0
1001
ACAD_PSEXT
1000
PDF-XChange Lite 3.0.pc3
1000
PDF-XChange Lite 3.0
1000
PDF-XChange
1000

1070
     0
  0
PLOTSETTINGS
  5
26FD
102
{ACAD_REACTORS
330
B16
102
}
330
B16
100
AcDbPlotSettings
  1
PLOT2436
  2
HP DesignJet 500 42 by HP.pc3
  4
User1658
  6

 40
0.0
 41
0.0
 42
0.0
 43
0.0
 44
914.4000244140625
 45
609.6000366210938
 46
0.0
 47
0.0
 48
0.0
 49
0.0
140
36.00000000000001
141
24.0
142
1.0
143
1.0
 70
  2736
 72
     0
 73
     0
 74
     4
  7
swan2436.ctb
 75
    16
147
1.0
148
0.0
149
0.0
1001
ACAD_PSEXT
1000
HP DesignJet 500 42 by HP.pc3
1000
HP DesignJet 500 42 by HP
1000
\\SWAN2003
1000

1070
     0
  0
PLOTSETTINGS
  5
2720
102
{ACAD_REACTORS
330
B16
102
}
330
B16
100
AcDbPlotSettings
  1
PRINT11X17
  2
Kyocera Mita KM-1650 KX.pc3
  4
Tabloid
  6

 40
4.984749794006348
 41
5.069418907165527
 42
5.069427490234375
 43
4.9847412109375
 44
431.7999877929688
 45
279.3999938964844
 46
0.0
 47
0.0
 48
0.0
 49
0.0
140
36.00000000000001
141
24.0
142
1.0
143
2.263261292920465
 70
  2736
 72
     0
 73
     0
 74
     4
  7
Swan_Generic_Medium.ctb
 75
     0
147
0.4418402785078434
148
0.0
149
0.0
1001
ACAD_PSEXT
1000
Kyocera Mita KM-1650 KX.pc3
1000
Kyocera Mita KM-1650 KX
1000
IP_192.168.1.188
1000

1070
     0
  0
ACAD_PROXY_OBJECT
  5
3E5F
102
{ACAD_REACTORS
330
206C
102
}
330
206C
100
AcDbProxyObject
 90
      499
 91
      510
 93
       81
310
908313A315F58524546500
  0
ACAD_PROXY_OBJECT
  5
3E77
102
{ACAD_REACTORS
330
206C
102
}
330
206C
100
AcDbProxyObject
 90
      499
 91
      510
 93
      145
310
908383A315F585245460000000000000810100
  0
ACAD_PROXY_OBJECT
  5
3E78
102
{ACAD_REACTORS
330
206C
102
}
330
206C
100
AcDbProxyObject
 90
      499
 91
      510
 93
      145
310
908313A345F585245464000000000000104000
  0
ACAD_PROXY_OBJECT
  5
3E68
102
{ACAD_REACTORS
330
206C
102
}
330
206C
100
AcDbProxyObject
 90
      499
 91
      510
 93
      193
310
90E313A31305F585245465F585245464000000000000244000
1001
ACAD
1000
AcRTDxfName
1000
SCALE
1000
AcRTDxfName
1000
SCALE
1000
AcRTDxfName
1000
SCALE
1000
AcRTDxfName
1000
SCALE
1000
AcRTDxfName
1000
SCALE
1000
AcRTDxfName
1000
SCALE
  0
ACAD_PROXY_OBJECT
  5
3E79
102
{ACAD_REACTORS
330
206C
102
}
330
206C
100
AcDbProxyObject
 90
      499
 91
      510
 93
      121
310
90D313A315F585245465F58524546500
1001
ACAD
1000
AcRTDxfName
1000
SCALE
1000
AcRTDxfName
1000
SCALE
1000
AcRTDxfName
1000
SCALE
1000
AcRTDxfName
1000
SCALE
1000
AcRTDxfName
1000
SCALE
1000
AcRTDxfName
1000
SCALE
  0
ACAD_PROXY_OBJECT
  5
3E7A
102
{ACAD_REACTORS
330
206C
102
}
330
206C
100
AcDbProxyObject
 90
      499
 91
      510
 93
      201
310
90F313A3130305F585245465F585245464000000000000594000
1001
ACAD
1000
AcRTDxfName
1000
SCALE
1000
AcRTDxfName
1000
SCALE
1000
AcRTDxfName
1000
SCALE
1000
AcRTDxfName
1000
SCALE
1000
AcRTDxfName
1000
SCALE
1000
AcRTDxfName
1000
SCALE
  0
ACAD_PROXY_OBJECT
  5
3E7B
102
{ACAD_REACTORS
330
206C
102
}
330
206C
100
AcDbProxyObject
 90
      499
 91
      510
 93
      193
310
90E31303A315F585245465F585245460000000000000910100
1001
ACAD
1000
AcRTDxfName
1000
SCALE
1000
AcRTDxfName
1000
SCALE
1000
AcRTDxfName
1000
SCALE
1000
AcRTDxfName
1000
SCALE
1000
AcRTDxfName
1000
SCALE
1000
AcRTDxfName
1000
SCALE
  0
ACAD_PROXY_OBJECT
  5
3E61
102
{ACAD_REACTORS
330
206C
102
}
330
206C
100
AcDbProxyObject
 90
      499
 91
      510
 93
      297
310
9133120312F3222203D2031272D30225F585245460000000000003E0FC000000000000284000
1001
ACAD
1000
AcRTDxfName
1000
SCALE
1000
AcRTDxfName
1000
SCALE
1000
AcRTDxfName
1000
SCALE
1000
AcRTDxfName
1000
SCALE
1000
AcRTDxfName
1000
SCALE
  0
ACAD_PROXY_OBJECT
  5
3E7C
102
{ACAD_REACTORS
330
206C
102
}
330
206C
100
AcDbProxyObject
 90
      499
 91
      510
 93
      193
310
90E313A34305F585245465F585245464000000000000444000
1001
ACAD
1000
AcRTDxfName
1000
SCALE
1000
AcRTDxfName
1000
SCALE
1000
AcRTDxfName
1000
SCALE
1000
AcRTDxfName
1000
SCALE
1000
AcRTDxfName
1000
SCALE
1000
AcRTDxfName
1000
SCALE
  0
ACAD_PROXY_OBJECT
  5
3E7D
102
{ACAD_REACTORS
330
206C
102
}
330
206C
100
AcDbProxyObject
 90
      499
 91
      510
 93
      145
310
908313A325F585245464000000000000004000
  0
ACAD_PROXY_OBJECT
  5
3E7E
102
{ACAD_REACTORS
330
206C
102
}
330
206C
100
AcDbProxyObject
 90
      499
 91
      510
 93
      201
310
90F3130303A315F585245465F585245460000000000001650100
1001
ACAD
1000
AcRTDxfName
1000
SCALE
1000
AcRTDxfName
1000
SCALE
1000
AcRTDxfName
1000
SCALE
1000
AcRTDxfName
1000
SCALE
1000
AcRTDxfName
1000
SCALE
1000
AcRTDxfName
1000
SCALE
  0
ACAD_PROXY_OBJECT
  5
3E70
102
{ACAD_REACTORS
330
206C
102
}
330
206C
100
AcDbProxyObject
 90
      499
 91
      510
 93
      337
310
918312F31323822203D2031272D30225F585245465F58524546000000000000200FC000000000000284000
1001
ACAD
1000
AcRTDxfName
1000
SCALE
1000
AcRTDxfName
1000
SCALE
1000
AcRTDxfName
1000
SCALE
1000
AcRTDxfName
1000
SCALE
1000
AcRTDxfName
1000
SCALE
1000
AcRTDxfName
1000
SCALE
  0
ACAD_PROXY_OBJECT
  5
3E7F
102
{ACAD_REACTORS
330
206C
102
}
330
206C
100
AcDbProxyObject
 90
      499
 91
      510
 93
      193
310
90E313A33305F585245465F5852454640000000000003E4000
1001
ACAD
1000
AcRTDxfName
1000
SCALE
1000
AcRTDxfName
1000
SCALE
1000
AcRTDxfName
1000
SCALE
1000
AcRTDxfName
1000
SCALE
1000
AcRTDxfName
1000
SCALE
1000
AcRTDxfName
1000
SCALE
  0
ACAD_PROXY_OBJECT
  5
3E80
102
{ACAD_REACTORS
330
206C
102
}
330
206C
100
AcDbProxyObject
 90
      499
 91
      510
 93
      185
310
90D313A355F585245465F585245464000000000000144000
1001
ACAD
1000
AcRTDxfName
1000
SCALE
1000
AcRTDxfName
1000
SCALE
1000
AcRTDxfName
1000
SCALE
1000
AcRTDxfName
1000
SCALE
1000
AcRTDxfName
1000
SCALE
1000
AcRTDxfName
1000
SCALE
  0
ACAD_PROXY_OBJECT
  5
3E81
102
{ACAD_REACTORS
330
206C
102
}
330
206C
100
AcDbProxyObject
 90
      499
 91
      510
 93
      193
310
90E313A35305F585245465F585245464000000000000494000
1001
ACAD
1000
AcRTDxfName
1000
SCALE
1000
AcRTDxfName
1000
SCALE
1000
AcRTDxfName
1000
SCALE
1000
AcRTDxfName
1000
SCALE
1000
AcRTDxfName
1000
SCALE
1000
AcRTDxfName
1000
SCALE
  0
ACAD_PROXY_OBJECT
  5
3E69
102
{ACAD_REACTORS
330
206C
102
}
330
206C
100
AcDbProxyObject
 90
      499
 91
      510
 93
      193
310
90E313A31365F585245465F585245464000000000000304000
1001
ACAD
1000
AcRTDxfName
1000
SCALE
1000
AcRTDxfName
1000
SCALE
1000
AcRTDxfName
1000
SCALE
1000
AcRTDxfName
1000
SCALE
1000
AcRTDxfName
1000
SCALE
1000
AcRTDxfName
1000
SCALE
  0
ACAD_PROXY_OBJECT
  5
3E82
102
{ACAD_REACTORS
330
206C
102
}
330
206C
100
AcDbProxyObject
 90
      499
 91
      510
 93
      185
310
90D343A315F585245465F585245460000000000000410100
1001
ACAD
1000
AcRTDxfName
1000
SCALE
1000
AcRTDxfName
1000
SCALE
1000
AcRTDxfName
1000
SCALE
1000
AcRTDxfName
1000
SCALE
1000
AcRTDxfName
1000
SCALE
1000
AcRTDxfName
1000
SCALE
  0
ACAD_PROXY_OBJECT
  5
3E83
102
{ACAD_REACTORS
330
206C
102
}
330
206C
100
AcDbProxyObject
 90
      499
 91
      510
 93
      153
310
909313A35305F585245464000000000000494000
  0
ACAD_PROXY_OBJECT
  5
3E84
102
{ACAD_REACTORS
330
206C
102
}
330
206C
100
AcDbProxyObject
 90
      499
 91
      510
 93
      153
310
909313A34305F585245464000000000000444000
  0
ACAD_PROXY_OBJECT
  5
3E85
102
{ACAD_REACTORS
330
206C
102
}
330
206C
100
AcDbProxyObject
 90
      499
 91
      510
 93
      145
310
908323A315F585245460000000000000010100
  0
ACAD_PROXY_OBJECT
  5
3E62
102
{ACAD_REACTORS
330
206C
102
}
330
206C
100
AcDbProxyObject
 90
      499
 91
      510
 93
      145
310
908343A315F585245460000000000000410100
  0
ACAD_PROXY_OBJECT
  5
3E86
102
{ACAD_REACTORS
330
206C
102
}
330
206C
100
AcDbProxyObject
 90
      499
 91
      510
 93
      297
310
913312F31323822203D2031272D30225F58524546000000000000200FC000000000000284000
  0
ACAD_PROXY_OBJECT
  5
3E71
102
{ACAD_REACTORS
330
206C
102
}
330
206C
100
AcDbProxyObject
 90
      499
 91
      510
 93
      161
310
90A3130303A315F585245460000000000001650100
  0
ACAD_PROXY_OBJECT
  5
3E63
102
{ACAD_REACTORS
330
206C
102
}
330
206C
100
AcDbProxyObject
 90
      499
 91
      510
 93
      297
310
913312D312F3222203D2031272D30225F585245460000000000003E0FC000000000000284000
  0
ACAD_PROXY_OBJECT
  5
3E64
102
{ACAD_REACTORS
330
206C
102
}
330
206C
100
AcDbProxyObject
 90
      499
 91
      510
 93
      145
310
908313A355F585245464000000000000144000
  0
ACAD_PROXY_OBJECT
  5
3E65
102
{ACAD_REACTORS
330
206C
102
}
330
206C
100
AcDbProxyObject
 90
      499
 91
      510
 93
      153
310
909313A32305F585245464000000000000344000
  0
ACAD_PROXY_OBJECT
  5
3E66
102
{ACAD_REACTORS
330
206C
102
}
330
206C
100
AcDbProxyObject
 90
      499
 91
      510
 93
      153
310
90931303A315F585245460000000000000910100
  0
ACAD_PROXY_OBJECT
  5
3E6A
102
{ACAD_REACTORS
330
206C
102
}
330
206C
100
AcDbProxyObject
 90
      499
 91
      510
 93
      161
310
90A313A3130305F585245464000000000000594000
  0
ACAD_PROXY_OBJECT
  5
3E67
102
{ACAD_REACTORS
330
206C
102
}
330
206C
100
AcDbProxyObject
 90
      499
 91
      510
 93
      145
310
908313A385F585245464000000000000204000
  0
ACAD_PROXY_OBJECT
  5
3E6B
102
{ACAD_REACTORS
330
206C
102
}
330
206C
100
AcDbProxyObject
 90
      499
 91
      510
 93
      257
310
90E3120312F3222203D2031272D30220000000000003E0FC000000000000284000
  0
ACAD_PROXY_OBJECT
  5
3E6C
102
{ACAD_REACTORS
330
206C
102
}
330
206C
100
AcDbProxyObject
 90
      499
 91
      510
 93
      153
310
909313A31365F585245464000000000000304000
  0
ACAD_PROXY_OBJECT
  5
3E6D
102
{ACAD_REACTORS
330
206C
102
}
330
206C
100
AcDbProxyObject
 90
      499
 91
      510
 93
      153
310
909313A31305F585245464000000000000244000
  0
ACAD_PROXY_OBJECT
  5
3E6E
102
{ACAD_REACTORS
330
206C
102
}
330
206C
100
AcDbProxyObject
 90
      499
 91
      510
 93
      153
310
909313A33305F5852454640000000000003E4000
  0
ACAD_PROXY_OBJECT
  5
3E60
102
{ACAD_REACTORS
330
206C
102
}
330
206C
100
AcDbProxyObject
 90
      499
 91
      510
 93
      185
310
90D313A325F585245465F585245464000000000000004000
1001
ACAD
1000
AcRTDxfName
1000
SCALE
1000
AcRTDxfName
1000
SCALE
1000
AcRTDxfName
1000
SCALE
1000
AcRTDxfName
1000
SCALE
1000
AcRTDxfName
1000
SCALE
1000
AcRTDxfName
1000
SCALE
  0
ACAD_PROXY_OBJECT
  5
3E6F
102
{ACAD_REACTORS
330
206C
102
}
330
206C
100
AcDbProxyObject
 90
      499
 91
      510
 93
      185
310
90D313A345F585245465F585245464000000000000104000
1001
ACAD
1000
AcRTDxfName
1000
SCALE
1000
AcRTDxfName
1000
SCALE
1000
AcRTDxfName
1000
SCALE
1000
AcRTDxfName
1000
SCALE
1000
AcRTDxfName
1000
SCALE
1000
AcRTDxfName
1000
SCALE
  0
ACAD_PROXY_OBJECT
  5
3E72
102
{ACAD_REACTORS
330
206C
102
}
330
206C
100
AcDbProxyObject
 90
      499
 91
      510
 93
      185
310
90D313A385F585245465F585245464000000000000204000
1001
ACAD
1000
AcRTDxfName
1000
SCALE
1000
AcRTDxfName
1000
SCALE
1000
AcRTDxfName
1000
SCALE
1000
AcRTDxfName
1000
SCALE
1000
AcRTDxfName
1000
SCALE
1000
AcRTDxfName
1000
SCALE
  0
ACAD_PROXY_OBJECT
  5
3E73
102
{ACAD_REACTORS
330
206C
102
}
330
206C
100
AcDbProxyObject
 90
      499
 91
      510
 93
      193
310
90E313A32305F585245465F585245464000000000000344000
1001
ACAD
1000
AcRTDxfName
1000
SCALE
1000
AcRTDxfName
1000
SCALE
1000
AcRTDxfName
1000
SCALE
1000
AcRTDxfName
1000
SCALE
1000
AcRTDxfName
1000
SCALE
1000
AcRTDxfName
1000
SCALE
  0
ACAD_PROXY_OBJECT
  5
3E74
102
{ACAD_REACTORS
330
206C
102
}
330
206C
100
AcDbProxyObject
 90
      499
 91
      510
 93
      185
310
90D383A315F585245465F585245460000000000000810100
1001
ACAD
1000
AcRTDxfName
1000
SCALE
1000
AcRTDxfName
1000
SCALE
1000
AcRTDxfName
1000
SCALE
1000
AcRTDxfName
1000
SCALE
1000
AcRTDxfName
1000
SCALE
1000
AcRTDxfName
1000
SCALE
  0
ACAD_PROXY_OBJECT
  5
3E75
102
{ACAD_REACTORS
330
206C
102
}
330
206C
100
AcDbProxyObject
 90
      499
 91
      510
 93
      337
310
918312D312F3222203D2031272D30225F585245465F585245460000000000003E0FC000000000000284000
1001
ACAD
1000
AcRTDxfName
1000
SCALE
1000
AcRTDxfName
1000
SCALE
1000
AcRTDxfName
1000
SCALE
1000
AcRTDxfName
1000
SCALE
1000
AcRTDxfName
1000
SCALE
1000
AcRTDxfName
1000
SCALE
  0
ACAD_PROXY_OBJECT
  5
3E76
102
{ACAD_REACTORS
330
206C
102
}
330
206C
100
AcDbProxyObject
 90
      499
 91
      510
 93
      185
310
90D323A315F585245465F585245460000000000000010100
1001
ACAD
1000
AcRTDxfName
1000
SCALE
1000
AcRTDxfName
1000
SCALE
1000
AcRTDxfName
1000
SCALE
1000
AcRTDxfName
1000
SCALE
1000
AcRTDxfName
1000
SCALE
1000
AcRTDxfName
1000
SCALE
  0
ACAD_PROXY_OBJECT
  5
206D
102
{ACAD_REACTORS
330
206C
102
}
330
206C
100
AcDbProxyObject
 90
      499
 91
      510
 93
       41
310
903313A31580
  0
ACAD_PROXY_OBJECT
  5
206E
102
{ACAD_REACTORS
330
206C
102
}
330
206C
100
AcDbProxyObject
 90
      499
 91
      510
 93
      105
310
903313A324000000000000004000
  0
ACAD_PROXY_OBJECT
  5
206F
102
{ACAD_REACTORS
330
206C
102
}
330
206C
100
AcDbProxyObject
 90
      499
 91
      510
 93
      105
310
903313A344000000000000104000
  0
ACAD_PROXY_OBJECT
  5
2070
102
{ACAD_REACTORS
330
206C
102
}
330
206C
100
AcDbProxyObject
 90
      499
 91
      510
 93
      105
310
903313A354000000000000144000
  0
ACAD_PROXY_OBJECT
  5
2071
102
{ACAD_REACTORS
330
206C
102
}
330
206C
100
AcDbProxyObject
 90
      499
 91
      510
 93
      105
310
903313A384000000000000204000
  0
ACAD_PROXY_OBJECT
  5
2072
102
{ACAD_REACTORS
330
206C
102
}
330
206C
100
AcDbProxyObject
 90
      499
 91
      510
 93
      113
310
904313A31304000000000000244000
  0
ACAD_PROXY_OBJECT
  5
2073
102
{ACAD_REACTORS
330
206C
102
}
330
206C
100
AcDbProxyObject
 90
      499
 91
      510
 93
      113
310
904313A31364000000000000304000
  0
ACAD_PROXY_OBJECT
  5
2074
102
{ACAD_REACTORS
330
206C
102
}
330
206C
100
AcDbProxyObject
 90
      499
 91
      510
 93
      113
310
904313A32304000000000000344000
  0
ACAD_PROXY_OBJECT
  5
2075
102
{ACAD_REACTORS
330
206C
102
}
330
206C
100
AcDbProxyObject
 90
      499
 91
      510
 93
      113
310
904313A333040000000000003E4000
  0
ACAD_PROXY_OBJECT
  5
2076
102
{ACAD_REACTORS
330
206C
102
}
330
206C
100
AcDbProxyObject
 90
      499
 91
      510
 93
      113
310
904313A34304000000000000444000
  0
ACAD_PROXY_OBJECT
  5
2077
102
{ACAD_REACTORS
330
206C
102
}
330
206C
100
AcDbProxyObject
 90
      499
 91
      510
 93
      113
310
904313A35304000000000000494000
  0
ACAD_PROXY_OBJECT
  5
2078
102
{ACAD_REACTORS
330
206C
102
}
330
206C
100
AcDbProxyObject
 90
      499
 91
      510
 93
      121
310
905313A3130304000000000000594000
  0
ACAD_PROXY_OBJECT
  5
2079
102
{ACAD_REACTORS
330
206C
102
}
330
206C
100
AcDbProxyObject
 90
      499
 91
      510
 93
      105
310
903323A310000000000000010100
  0
ACAD_PROXY_OBJECT
  5
207A
102
{ACAD_REACTORS
330
206C
102
}
330
206C
100
AcDbProxyObject
 90
      499
 91
      510
 93
      105
310
903343A310000000000000410100
  0
ACAD_PROXY_OBJECT
  5
207B
102
{ACAD_REACTORS
330
206C
102
}
330
206C
100
AcDbProxyObject
 90
      499
 91
      510
 93
      105
310
903383A310000000000000810100
  0
ACAD_PROXY_OBJECT
  5
207C
102
{ACAD_REACTORS
330
206C
102
}
330
206C
100
AcDbProxyObject
 90
      499
 91
      510
 93
      113
310
90431303A310000000000000910100
  0
ACAD_PROXY_OBJECT
  5
207D
102
{ACAD_REACTORS
330
206C
102
}
330
206C
100
AcDbProxyObject
 90
      499
 91
      510
 93
      121
310
9053130303A310000000000001650100
  0
ACAD_PROXY_OBJECT
  5
207E
102
{ACAD_REACTORS
330
206C
102
}
330
206C
100
AcDbProxyObject
 90
      499
 91
      510
 93
      257
310
90E312F31323822203D2031272D3022000000000000200FC000000000000284000
  0
ACAD_PROXY_OBJECT
  5
207F
102
{ACAD_REACTORS
330
206C
102
}
330
206C
100
AcDbProxyObject
 90
      499
 91
      510
 93
      249
310
90D312F363422203D2031272D3022000000000000240FC000000000000284000
  0
ACAD_PROXY_OBJECT
  5
2080
102
{ACAD_REACTORS
330
206C
102
}
330
206C
100
AcDbProxyObject
 90
      499
 91
      510
 93
      249
310
90D312F333222203D2031272D3022000000000000280FC000000000000284000
  0
ACAD_PROXY_OBJECT
  5
2081
102
{ACAD_REACTORS
330
206C
102
}
330
206C
100
AcDbProxyObject
 90
      499
 91
      510
 93
      249
310
90D312F313622203D2031272D30220000000000002C0FC000000000000284000
  0
ACAD_PROXY_OBJECT
  5
2082
102
{ACAD_REACTORS
330
206C
102
}
330
206C
100
AcDbProxyObject
 90
      499
 91
      510
 93
      249
310
90D332F333222203D2031272D30220000000000002E0FC000000000000284000
  0
ACAD_PROXY_OBJECT
  5
2083
102
{ACAD_REACTORS
330
206C
102
}
330
206C
100
AcDbProxyObject
 90
      499
 91
      510
 93
      241
310
90C312F3822203D2031272D3022000000000000300FC000000000000284000
  0
ACAD_PROXY_OBJECT
  5
2084
102
{ACAD_REACTORS
330
206C
102
}
330
206C
100
AcDbProxyObject
 90
      499
 91
      510
 93
      249
310
90D332F313622203D2031272D3022000000000000320FC000000000000284000
  0
ACAD_PROXY_OBJECT
  5
2085
102
{ACAD_REACTORS
330
206C
102
}
330
206C
100
AcDbProxyObject
 90
      499
 91
      510
 93
      241
310
90C312F3422203D2031272D3022000000000000340FC000000000000284000
  0
ACAD_PROXY_OBJECT
  5
2086
102
{ACAD_REACTORS
330
206C
102
}
330
206C
100
AcDbProxyObject
 90
      499
 91
      510
 93
      241
310
90C332F3822203D2031272D3022000000000000360FC000000000000284000
  0
ACAD_PROXY_OBJECT
  5
2087
102
{ACAD_REACTORS
330
206C
102
}
330
206C
100
AcDbProxyObject
 90
      499
 91
      510
 93
      241
310
90C312F3222203D2031272D3022000000000000380FC000000000000284000
  0
ACAD_PROXY_OBJECT
  5
2088
102
{ACAD_REACTORS
330
206C
102
}
330
206C
100
AcDbProxyObject
 90
      499
 91
      510
 93
      241
310
90C332F3422203D2031272D30220000000000003A0FC000000000000284000
  0
ACAD_PROXY_OBJECT
  5
2089
102
{ACAD_REACTORS
330
206C
102
}
330
206C
100
AcDbProxyObject
 90
      499
 91
      510
 93
      161
310
90A3122203D2031272D30224000000000000284000
  0
ACAD_PROXY_OBJECT
  5
208A
102
{ACAD_REACTORS
330
206C
102
}
330
206C
100
AcDbProxyObject
 90
      499
 91
      510
 93
      257
310
90E312D312F3222203D2031272D30220000000000003E0FC000000000000284000
  0
ACAD_PROXY_OBJECT
  5
208B
102
{ACAD_REACTORS
330
206C
102
}
330
206C
100
AcDbProxyObject
 90
      499
 91
      510
 93
      225
310
90A3322203D2031272D302200000000000002100000000000000284000
  0
ACAD_PROXY_OBJECT
  5
208C
102
{ACAD_REACTORS
330
206C
102
}
330
206C
100
AcDbProxyObject
 90
      499
 91
      510
 93
      225
310
90A3622203D2031272D302200000000000006100000000000000284000
  0
ACAD_PROXY_OBJECT
  5
208D
102
{ACAD_REACTORS
330
206C
102
}
330
206C
100
AcDbProxyObject
 90
      499
 91
      510
 93
      249
310
90D31272D3022203D2031272D30220000000000000A100000000000000284000
  0
ACAD_PROXY_OBJECT
  5
205E
102
{ACAD_REACTORS
330
2058
102
}
330
2058
100
AcDbProxyObject
 90
      499
 91
      508
 93
      436
310
42CC9915DA5C99599C985B595049028333333333333E3BF0000000000000FB0107901411070040501600405405064090741402480A0340
1001
ACAD
1000
AcDbSavedByObjectVersion
1070
     0
  0
ACAD_PROXY_OBJECT
  5
2060
102
{ACAD_REACTORS
330
2058
102
}
330
2058
100
AcDbProxyObject
 90
      499
 91
      508
 93
      500
310
424CD108121A5919195B90640502408333333333333E3BF0000000000000FB01079024090700405020000000000001110200405405064090740C02480A0340
1001
ACAD
1000
AcDbSavedByObjectVersion
1070
     0
  0
ACAD_PROXY_OBJECT
  5
205F
102
{ACAD_REACTORS
330
2058
102
}
330
2058
100
AcDbProxyObject
 90
      499
 91
      508
 93
      436
310
42CCD915DA5C99599C985B595059028333333333333E3BF0000000000000FB0107901411070040501600405405064090741402480A0340
1001
ACAD
1000
AcDbSavedByObjectVersion
1070
     0
  0
ACAD_PROXY_OBJECT
  5
205D
102
{ACAD_REACTORS
330
2058
102
}
330
2058
100
AcDbProxyObject
 90
      499
 91
      508
 93
      388
310
4150985CDA58D07406404333333333333E3BF0000000000000FB0107A41107004050150841D405064090741402480A0350
1001
ACAD
1000
AcDbSavedByObjectVersion
1070
     0
  0
ACAD_PROXY_OBJECT
  5
2064
102
{ACAD_REACTORS
330
2058
102
}
330
2058
100
AcDbProxyObject
 90
      499
 91
      508
 93
      428
310
42109C9A59DA1D195B90C409028333333333333E3BF0000000000000FB010790141107004050150841D405064090741402480A029950
1001
ACAD
1000
AcDbSavedByObjectVersion
1070
     0
  0
ACAD_PROXY_OBJECT
  5
2068
102
{ACAD_REACTORS
330
2058
102
}
330
2058
100
AcDbProxyObject
 90
      499
 91
      508
 93
      452
310
42D0DBDB1BDC90DA185B99D95104090240C333333333333E3BF0000000000000FB0108901411070040501508421405064090741402480A0350
1001
ACAD
1000
AcDbSavedByObjectVersion
1070
     0
  0
ACAD_PROXY_OBJECT
  5
2061
102
{ACAD_REACTORS
330
2058
102
}
330
2058
100
AcDbProxyObject
 90
      499
 91
      508
 93
      500
310
4290DBDB98D95C1D1D585B10940D028333333333333E3BF0000000000000FB0107902409070040501000000000000111010841D405064090740C02480A0340
1001
ACAD
1000
AcDbSavedByObjectVersion
1070
     0
  0
ACAD_PROXY_OBJECT
  5
2063
102
{ACAD_REACTORS
330
2058
102
}
330
2058
100
AcDbProxyObject
 90
      499
 91
      508
 93
      412
310
40D11A5B50B409028333333333333E3BF0000000000000FB010790141107004050150841D405064090741402480A02677FFFFFD0
1001
ACAD
1000
AcDbSavedByObjectVersion
1070
     0
  0
ACAD_PROXY_OBJECT
  5
2067
102
{ACAD_REACTORS
330
2058
102
}
330
2058
100
AcDbProxyObject
 90
      499
 91
      508
 93
      444
310
42D19858D95C185D1D195C9B90F409028333333333333E3BF0000000000000FB010790141107004050150841D405064090741402480A0350
1001
ACAD
1000
AcDbSavedByObjectVersion
1070
     0
  0
ACAD_PROXY_OBJECT
  5
2059
102
{ACAD_REACTORS
330
2058
102
}
330
2058
100
AcDbProxyObject
 90
      499
 91
      508
 93
      388
310
41119B185D240901404333333333333E3BF0000000000000F9010740A41107004050150841D405064090741402480A1B50
1001
ACAD
1000
AcDbSavedByObjectVersion
1070
     0
  0
ACAD_PROXY_OBJECT
  5
205A
102
{ACAD_REACTORS
330
2058
102
}
330
2058
100
AcDbProxyObject
 90
      499
 91
      508
 93
      476
310
43519B185D15DA5D1A115919D95CD0140901404333333333333E3BF0000000000000F9010740901411070040501600405405064090741402480A1B50
1001
ACAD
1000
AcDbSavedByObjectVersion
1070
     0
  0
ACAD_PROXY_OBJECT
  5
205B
102
{ACAD_REACTORS
330
2058
102
}
330
2058
100
AcDbProxyObject
 90
      499
 91
      508
 93
      412
310
41D1DBDD5C985D5910240902404333333333333E3BF0000000000000F9010740A411070040501641D405064090741402480A1B50
1001
ACAD
1000
AcDbSavedByObjectVersion
1070
     0
  0
ACAD_PROXY_OBJECT
  5
205C
102
{ACAD_REACTORS
330
2058
102
}
330
2058
100
AcDbProxyObject
 90
      499
 91
      508
 93
      500
310
4411DBDD5C985D5915DA5D1A115919D95CD0340902404333333333333E3BF0000000000000F9010740901411070040501600405405064090741402480A1B50
1001
ACAD
1000
AcDbSavedByObjectVersion
1070
     0
  0
ACAD_PROXY_OBJECT
  5
2066
102
{ACAD_REACTORS
330
2058
102
}
330
2058
100
AcDbProxyObject
 90
      499
 91
      508
 93
      444
310
42D31A5B995C185D1D195C9B90E409028333333333333E3BF0000000000000FB010790141107004050750841D405064090741402483A0350
1001
ACAD
1000
AcDbSavedByObjectVersion
1070
     0
  0
ACAD_PROXY_OBJECT
  5
2062
102
{ACAD_REACTORS
330
2058
102
}
330
2058
100
AcDbProxyObject
 90
      499
 91
      508
 93
      420
310
425499585B1A5CDD1A58D08409028333333333333E3BF0000000000000FB01079019070040501508421405064090741402480A1B40
1001
ACAD
1000
AcDbSavedByObjectVersion
1070
     0
  0
ACAD_PROXY_OBJECT
  5
2065
102
{ACAD_REACTORS
330
2058
102
}
330
2058
100
AcDbProxyObject
 90
      499
 91
      508
 93
      412
310
41D51A1A58DAD95B90D409028333333333333E3BF0000000000000FB010790141107004050150C41D405064090741402480A0350
1001
ACAD
1000
AcDbSavedByObjectVersion
1070
     0
  0
XRECORD
  5
4304
102
{ACAD_REACTORS
330
42FB
102
}
330
42FB
100
AcDbXrecord
 90
        0
  0
XRECORD
  5
431D
102
{ACAD_REACTORS
330
42FB
102
}
330
42FB
100
AcDbXrecord
340
2069
  0
XRECORD
  5
431A
102
{ACAD_REACTORS
330
42FB
102
}
330
42FB
100
AcDbXrecord
1000
DSTYLE
1002
{
1070
    41
 40
0.125
1070
   343
340
55
1070
   344
340
55
1070
   141
 40
0.0625
1070
    46
 40
0.0625
1070
    43
 40
0.0625
1070
    44
 40
0.0625
1070
   147
 40
0.0625
1070
   277
 70
     4
1070
   173
 70
     1
1070
    40
 40
2.0
1070
    77
 70
     1
1070
    73
 70
     0
1070
   279
 70
     2
1070
    74
 70
     0
1070
   340
340
5E
1070
   140
 40
0.09375
1070
    78
 70
     3
1002
}
  0
XRECORD
  5
4305
102
{ACAD_REACTORS
330
42FB
102
}
330
42FB
100
AcDbXrecord
  1
{FE848CDE-04E3-4546-9EE7-23DCF3942B06}
  0
XRECORD
  5
42FE
102
{ACAD_REACTORS
330
42FB
102
}
330
42FB
100
AcDbXrecord
  1

  0
XRECORD
  5
4303
102
{ACAD_REACTORS
330
42FB
102
}
330
42FB
100
AcDbXrecord
 90
        1
  0
XRECORD
  5
4300
102
{ACAD_REACTORS
330
42FB
102
}
330
42FB
100
AcDbXrecord
340
B15
  0
XRECORD
  5
4302
102
{ACAD_REACTORS
330
42FB
102
}
330
42FB
100
AcDbXrecord
 90
    10781
  0
XRECORD
  5
431E
102
{ACAD_REACTORS
330
42FB
102
}
330
42FB
100
AcDbXrecord
340
203F
  0
XRECORD
  5
4301
102
{ACAD_REACTORS
330
42FB
102
}
330
42FB
100
AcDbXrecord
340
B16
  0
XRECORD
  5
4307
102
{ACAD_REACTORS
330
42FB
102
}
330
42FB
100
AcDbXrecord
 40
0.0
  0
XRECORD
  5
430A
102
{ACAD_REACTORS
330
42FB
102
}
330
42FB
100
AcDbXrecord
340
0
  0
XRECORD
  5
4310
102
{ACAD_REACTORS
330
42FB
102
}
330
42FB
100
AcDbXrecord
 10
0.0
 20
0.0
 30
0.0
  0
XRECORD
  5
430C
102
{ACAD_REACTORS
330
42FB
102
}
330
42FB
100
AcDbXrecord
 10
0.0
 20
0.0
 30
0.0
  0
XRECORD
  5
430F
102
{ACAD_REACTORS
330
42FB
102
}
330
42FB
100
AcDbXrecord
 10
0.0
 20
0.0
 30
0.0
  0
XRECORD
  5
430D
102
{ACAD_REACTORS
330
42FB
102
}
330
42FB
100
AcDbXrecord
 10
0.0
 20
0.0
 30
0.0
  0
XRECORD
  5
430E
102
{ACAD_REACTORS
330
42FB
102
}
330
42FB
100
AcDbXrecord
 10
0.0
 20
0.0
 30
0.0
  0
XRECORD
  5
430B
102
{ACAD_REACTORS
330
42FB
102
}
330
42FB
100
AcDbXrecord
 10
0.0
 20
0.0
 30
0.0
  0
XRECORD
  5
4308
102
{ACAD_REACTORS
330
42FB
102
}
330
42FB
100
AcDbXrecord
340
0
  0
XRECORD
  5
4309
102
{ACAD_REACTORS
330
42FB
102
}
330
42FB
100
AcDbXrecord
 70
     0
  0
XRECORD
  5
42FF
102
{ACAD_REACTORS
330
42FB
102
}
330
42FB
100
AcDbXrecord
  1

  0
XRECORD
  5
42FC
102
{ACAD_REACTORS
330
42FB
102
}
330
42FB
100
AcDbXrecord
 90
        1
  0
XRECORD
  5
42FD
102
{ACAD_REACTORS
330
42FB
102
}
330
42FB
100
AcDbXrecord
 90
       70
  0
XRECORD
  5
4313
102
{ACAD_REACTORS
330
42FB
102
}
330
42FB
100
AcDbXrecord
340
0
  0
XRECORD
  5
4319
102
{ACAD_REACTORS
330
42FB
102
}
330
42FB
100
AcDbXrecord
 10
0.0
 20
0.0
 30
0.0
  0
XRECORD
  5
4315
102
{ACAD_REACTORS
330
42FB
102
}
330
42FB
100
AcDbXrecord
 10
0.0
 20
0.0
 30
0.0
  0
XRECORD
  5
4318
102
{ACAD_REACTORS
330
42FB
102
}
330
42FB
100
AcDbXrecord
 10
0.0
 20
0.0
 30
0.0
  0
XRECORD
  5
4316
102
{ACAD_REACTORS
330
42FB
102
}
330
42FB
100
AcDbXrecord
 10
0.0
 20
0.0
 30
0.0
  0
XRECORD
  5
4317
102
{ACAD_REACTORS
330
42FB
102
}
330
42FB
100
AcDbXrecord
 10
0.0
 20
0.0
 30
0.0
  0
XRECORD
  5
4314
102
{ACAD_REACTORS
330
42FB
102
}
330
42FB
100
AcDbXrecord
 10
0.0
 20
0.0
 30
0.0
  0
XRECORD
  5
4311
102
{ACAD_REACTORS
330
42FB
102
}
330
42FB
100
AcDbXrecord
340
0
  0
XRECORD
  5
4312
102
{ACAD_REACTORS
330
42FB
102
}
330
42FB
100
AcDbXrecord
 70
     0
  0
XRECORD
  5
4306
102
{ACAD_REACTORS
330
42FB
102
}
330
42FB
100
AcDbXrecord
  1
{6C8A0DCB-6891-48FD-B5BE-559392D6678F}
  0
DICTIONARYVAR
  5
431C
102
{ACAD_REACTORS
330
B76
102
}
330
B76
100
DictionaryVariables
280
     0
  1
1:1
  0
DICTIONARYVAR
  5
209E
102
{ACAD_REACTORS
330
B76
102
}
330
B76
100
DictionaryVariables
280
     0
  1
Standard
  0
DICTIONARYVAR
  5
B77
102
{ACAD_REACTORS
330
B76
102
}
330
B76
100
DictionaryVariables
280
     0
  1
1
  0
DICTIONARYVAR
  5
42B3
102
{ACAD_REACTORS
330
B76
102
}
330
B76
100
DictionaryVariables
280
     0
  1
1
  0
DICTIONARYVAR
  5
226D
102
{ACAD_REACTORS
330
B76
102
}
330
B76
100
DictionaryVariables
280
     0
  1
0
  0
DICTIONARYVAR
  5
20A2
102
{ACAD_REACTORS
330
B76
102
}
330
B76
100
DictionaryVariables
280
     0
  1
0
  0
DICTIONARYVAR
  5
20A1
102
{ACAD_REACTORS
330
B76
102
}
330
B76
100
DictionaryVariables
280
     0
  1
0
  0
DICTIONARYVAR
  5
209F
102
{ACAD_REACTORS
330
B76
102
}
330
B76
100
DictionaryVariables
280
     0
  1
0
  0
DICTIONARYVAR
  5
226C
102
{ACAD_REACTORS
330
B76
102
}
330
B76
100
DictionaryVariables
280
     0
  1
127
  0
XRECORD
  5
986
102
{ACAD_REACTORS
330
102
102
}
330
102
100
AcDbXrecord
330
0
330
0
330
0
330
0
330
0
330
0
330
0
330
0
330
0
330
0
330
0
330
0
330
0
330
0
330
0
330
0
330
0
330
0
330
0
330
0
330
0
330
0
330
0
330
0
330
0
330
0
330
0
330
0
330
0
330
0
330
0
330
0
330
0
330
0
330
0
330
0
330
0
330
0
330
0
330
0
330
0
330
0
330
0
330
0
330
0
330
0
330
0
330
0
330
0
330
0
330
0
330
0
330
0
330
0
330
0
330
0
330
0
330
0
330
0
330
0
330
0
330
0
330
0
330
0
330
0
330
0
330
0
330
0
330
0
330
0
330
0
330
0
330
0
330
0
330
0
330
0
330
0
330
0
330
0
330
0
330
0
330
0
330
0
330
0
330
0
330
0
330
0
330
0
330
0
330
0
330
0
330
0
330
0
330
0
330
0
330
0
330
0
330
0
330
0
330
0
330
0
330
0
330
0
330
0
330
0
330
0
330
0
330
0
330
0
330
0
330
0
330
0
330
0
330
0
330
0
330
0
330
0
330
0
330
0
330
0
330
0
330
0
330
0
330
0
330
0
330
0
330
0
330
0
330
0
330
0
330
0
330
0
330
0
330
0
330
0
330
0
330
0
330
0
330
0
330
0
330
0
330
0
330
0
330
0
330
0
330
0
330
0
330
0
330
0
330
0
330
0
330
0
330
0
330
0
330
0
330
0
330
0
330
0
330
0
330
0
330
0
330
0
330
0
330
0
330
0
330
0
330
0
330
0
330
0
330
0
330
0
330
0
330
0
330
0
330
0
  0
XRECORD
  5
987
102
{ACAD_REACTORS
330
102
102
}
330
102
100
AcDbXrecord
330
0
  0
XRECORD
  5
B10
102
{ACAD_REACTORS
330
21A
102
}
330
21A
100
AcDbXrecord
 40
0.0354262730106711
  0
DICTIONARY
  5
4322
330
2048
100
AcDbDictionary
280
     1
  3
ACAD_XREC_ROUNDTRIP
360
4323
  0
DICTIONARY
  5
4324
330
2040
100
AcDbDictionary
280
     1
  3
ACAD_XREC_ROUNDTRIP
360
4325
  0
DICTIONARY
  5
4326
330
2050
100
AcDbDictionary
280
     1
  3
ACAD_XREC_ROUNDTRIP
360
4327
  0
XRECORD
  5
4323
102
{ACAD_REACTORS
330
4322
102
}
330
4322
100
AcDbXrecord
102
MATERIAL
148
0.0
149
0.0
149
0.0
 93
        0
 94
      127
282
     0
 72
     0
 77
     0
171
     0
175
     0
179
     0
273
     0
  0
XRECORD
  5
4325
102
{ACAD_REACTORS
330
4324
102
}
330
4324
100
AcDbXrecord
102
MATERIAL
148
0.0
149
0.0
149
0.0
 93
        0
 94
      127
282
     0
 72
     0
 77
     0
171
     0
175
     0
179
     0
273
     0
  0
XRECORD
  5
4327
102
{ACAD_REACTORS
330
4326
102
}
330
4326
100
AcDbXrecord
102
MATERIAL
148
0.0
149
0.0
149
0.0
 93
        0
 94
      127
282
     0
 72
     0
 77
     0
171
     0
175
     0
179
     0
273
     0
  0
ENDSEC
  0
EOF
