  0
SECTION
  2
HEADER
  9
$ACADVER
  1
AC1014
  9
$ACADMAINTVER
 70
     9
  9
$DWGCODEPAGE
  3
ANSI_1252
  9
$INSBASE
 10
0.0
 20
0.0
 30
0.0
  9
$EXTMIN
 10
1609.68276907745
 20
987.730010173353
 30
0.0
  9
$EXTMAX
 10
1638.965319116222
 20
1021.794389825405
 30
0.0
  9
$LIMMIN
 10
0.0
 20
0.0
  9
$LIMMAX
 10
4800.0
 20
3600.0
  9
$ORTHOMODE
 70
     0
  9
$REGENMODE
 70
     1
  9
$FILLMODE
 70
     1
  9
$QTEXTMODE
 70
     0
  9
$MIRRTEXT
 70
     0
  9
$DRAGMODE
 70
     2
  9
$LTSCALE
 40
2.0
  9
$OSMODE
 70
    37
  9
$ATTMODE
 70
     1
  9
$TEXTSIZE
 40
4.5
  9
$TRACEWID
 40
0.05
  9
$TEXTSTYLE
  7
ROMANS
  9
$CLAYER
  8
0
  9
$CELTYPE
  6
BYLAYER
  9
$CECOLOR
 62
   256
  9
$CELTSCALE
 40
1.0
  9
$DELOBJ
 70
     1
  9
$DISPSILH
 70
     0
  9
$DIMSCALE
 40
4.0
  9
$DIMASZ
 40
0.125
  9
$DIMEXO
 40
0.0625
  9
$DIMDLI
 40
0.0625
  9
$DIMRND
 40
0.0
  9
$DIMDLE
 40
0.0625
  9
$DIMEXE
 40
0.0625
  9
$DIMTP
 40
0.0
  9
$DIMTM
 40
0.0
  9
$DIMTXT
 40
0.09375
  9
$DIMCEN
 40
0.0625
  9
$DIMTSZ
 40
0.0
  9
$DIMTOL
 70
     0
  9
$DIMLIM
 70
     0
  9
$DIMTIH
 70
     0
  9
$DIMTOH
 70
     0
  9
$DIMSE1
 70
     0
  9
$DIMSE2
 70
     0
  9
$DIMTAD
 70
     1
  9
$DIMZIN
 70
     3
  9
$DIMBLK
  1

  9
$DIMASO
 70
     1
  9
$DIMSHO
 70
     1
  9
$DIMPOST
  1

  9
$DIMAPOST
  1

  9
$DIMALT
 70
     0
  9
$DIMALTD
 70
     2
  9
$DIMALTF
 40
25.4
  9
$DIMLFAC
 40
1.0
  9
$DIMTOFL
 70
     0
  9
$DIMTVP
 40
0.0
  9
$DIMTIX
 70
     0
  9
$DIMSOXD
 70
     0
  9
$DIMSAH
 70
     1
  9
$DIMBLK1
  1
ARCHTICK
  9
$DIMBLK2
  1
ARCHTICK
  9
$DIMSTYLE
  2
DIM-1
  9
$DIMCLRD
 70
     0
  9
$DIMCLRE
 70
     0
  9
$DIMCLRT
 70
     0
  9
$DIMTFAC
 40
1.0
  9
$DIMGAP
 40
0.0625
  9
$DIMJUST
 70
     0
  9
$DIMSD1
 70
     0
  9
$DIMSD2
 70
     0
  9
$DIMTOLJ
 70
     1
  9
$DIMTZIN
 70
     0
  9
$DIMALTZ
 70
     0
  9
$DIMALTTZ
 70
     0
  9
$DIMFIT
 70
     5
  9
$DIMUPT
 70
     0
  9
$DIMUNIT
 70
     4
  9
$DIMDEC
 70
     4
  9
$DIMTDEC
 70
     4
  9
$DIMALTU
 70
     2
  9
$DIMALTTD
 70
     2
  9
$DIMTXSTY
  7
ROMANS
  9
$DIMAUNIT
 70
     0
  9
$LUNITS
 70
     4
  9
$LUPREC
 70
     4
  9
$SKETCHINC
 40
0.1
  9
$FILLETRAD
 40
0.0
  9
$AUNITS
 70
     0
  9
$AUPREC
 70
     0
  9
$MENU
  1
.
  9
$ELEVATION
 40
0.0
  9
$PELEVATION
 40
0.0
  9
$THICKNESS
 40
0.0
  9
$LIMCHECK
 70
     0
  9
$CHAMFERA
 40
0.0
  9
$CHAMFERB
 40
0.0
  9
$CHAMFERC
 40
1.0
  9
$CHAMFERD
 40
0.0
  9
$SKPOLY
 70
     0
  9
$TDCREATE
 40
2455134.40969816
  9
$TDUPDATE
 40
2455169.647776146
  9
$TDINDWG
 40
0.2396060995
  9
$TDUSRTIMER
 40
0.2396053819
  9
$USRTIMER
 70
     1
  9
$ANGBASE
 50
0.0
  9
$ANGDIR
 70
     0
  9
$PDMODE
 70
    34
  9
$PDSIZE
 40
0.0
  9
$PLINEWID
 40
0.0
  9
$COORDS
 70
     1
  9
$SPLFRAME
 70
     0
  9
$SPLINETYPE
 70
     6
  9
$SPLINESEGS
 70
     8
  9
$ATTDIA
 70
     0
  9
$ATTREQ
 70
     1
  9
$HANDLING
 70
     1
  9
$HANDSEED
  5
4C1E
  9
$SURFTAB1
 70
     6
  9
$SURFTAB2
 70
     6
  9
$SURFTYPE
 70
     6
  9
$SURFU
 70
     6
  9
$SURFV
 70
     6
  9
$UCSNAME
  2

  9
$UCSORG
 10
0.0
 20
0.0
 30
0.0
  9
$UCSXDIR
 10
1.0
 20
0.0
 30
0.0
  9
$UCSYDIR
 10
0.0
 20
1.0
 30
0.0
  9
$PUCSNAME
  2

  9
$PUCSORG
 10
0.0
 20
0.0
 30
0.0
  9
$PUCSXDIR
 10
1.0
 20
0.0
 30
0.0
  9
$PUCSYDIR
 10
0.0
 20
1.0
 30
0.0
  9
$USERI1
 70
     0
  9
$USERI2
 70
     0
  9
$USERI3
 70
     0
  9
$USERI4
 70
     0
  9
$USERI5
 70
     0
  9
$USERR1
 40
0.0
  9
$USERR2
 40
0.0
  9
$USERR3
 40
0.0
  9
$USERR4
 40
0.0
  9
$USERR5
 40
0.0
  9
$WORLDVIEW
 70
     1
  9
$SHADEDGE
 70
     3
  9
$SHADEDIF
 70
    70
  9
$TILEMODE
 70
     0
  9
$MAXACTVP
 70
    48
  9
$PINSBASE
 10
0.0
 20
0.0
 30
0.0
  9
$PLIMCHECK
 70
     0
  9
$PEXTMIN
 10
-0.0000000000000002
 20
-0.0000000000000053
 30
0.0
  9
$PEXTMAX
 10
8.500000000000002
 20
11.0
 30
0.0
  9
$PLIMMIN
 10
0.0562725145632888
 20
0.0690491114654651
  9
$PLIMMAX
 10
8.447017216265106
 20
10.92765997166995
  9
$UNITMODE
 70
     0
  9
$VISRETAIN
 70
     1
  9
$PLINEGEN
 70
     0
  9
$PSLTSCALE
 70
     0
  9
$TREEDEPTH
 70
  3020
  9
$PICKSTYLE
 70
     1
  9
$CMLSTYLE
  2
STANDARD
  9
$CMLJUST
 70
     0
  9
$CMLSCALE
 40
1.0
  9
$PROXYGRAPHICS
 70
     1
  9
$MEASUREMENT
 70
     0
  0
ENDSEC
  0
SECTION
  2
CLASSES
  0
CLASS
  1
LWPOLYLINE
  2
AcDbPolyline
  3
AutoCAD 2000
 90
        0
280
     0
281
     1
  0
CLASS
  1
XRECORD
  2
AcDbXrecord
  3
AutoCAD 2000
 90
        0
280
     0
281
     0
  0
CLASS
  1
ACDBDICTIONARYWDFLT
  2
AcDbDictionaryWithDefault
  3
ObjectDBX Classes
 90
        0
280
     0
281
     0
  0
CLASS
  1
ACDBPLACEHOLDER
  2
AcDbPlaceHolder
  3
ObjectDBX Classes
 90
        0
280
     0
281
     0
  0
CLASS
  1
LAYOUT
  2
AcDbLayout
  3
ObjectDBX Classes
 90
        0
280
     0
281
     0
  0
CLASS
  1
DICTIONARYVAR
  2
AcDbDictionaryVar
  3
ObjectDBX Classes
 90
        0
280
     0
281
     0
  0
CLASS
  1
PLOTSETTINGS
  2
AcDbPlotSettings
  3
ObjectDBX Classes
 90
        0
280
     0
281
     0
  0
CLASS
  1
MATERIAL
  2
AcDbMaterial
  3
ObjectDBX Classes
 90
     1153
280
     0
281
     0
  0
CLASS
  1
VISUALSTYLE
  2
AcDbVisualStyle
  3
ObjectDBX Classes
 90
     4095
280
     0
281
     0
  0
CLASS
  1
TABLESTYLE
  2
AcDbTableStyle
  3
ObjectDBX Classes
 90
     4095
280
     0
281
     0
  0
CLASS
  1
SCALE
  2
AcDbScale
  3
ObjectDBX Classes
 90
     1153
280
     0
281
     0
  0
CLASS
  1
MLEADERSTYLE
  2
AcDbMLeaderStyle
  3
ACDB_MLEADERSTYLE_CLASS
 90
     4095
280
     0
281
     0
  0
CLASS
  1
EXACXREFPANELOBJECT
  2
ExAcXREFPanelObject
  3
EXAC_ESW
 90
     1025
280
     1
281
     0
  0
CLASS
  1
NPOCOLLECTION
  2
AcDbImpNonPersistentObjectsCollection
  3
ObjectDBX Classes
 90
     1153
280
     1
281
     0
  0
CLASS
  1
CELLSTYLEMAP
  2
AcDbCellStyleMap
  3
ObjectDBX Classes
 90
     1152
280
     0
281
     0
  0
CLASS
  1
SORTENTSTABLE
  2
AcDbSortentsTable
  3
ObjectDBX Classes
 90
        0
280
     0
281
     0
  0
CLASS
  1
RASTERVARIABLES
  2
AcDbRasterVariables
  3
ISM
 90
        0
280
     0
281
     0
  0
CLASS
  1
IMAGEDEF
  2
AcDbRasterImageDef
  3
ISM
 90
        0
280
     0
281
     0
  0
CLASS
  1
IMAGEDEF_REACTOR
  2
AcDbRasterImageDefReactor
  3
ISM
 90
        1
280
     0
281
     0
  0
CLASS
  1
IMAGE
  2
AcDbRasterImage
  3
ISM
 90
      127
280
     0
281
     1
  0
CLASS
  1
HATCH
  2
AcDbHatch
  3
AutoCAD 2000
 90
        0
280
     0
281
     1
  0
ENDSEC
  0
SECTION
  2
TABLES
  0
TABLE
  2
VPORT
  5
8
102
{ACAD_XDICTIONARY
360
4C16
102
}
330
0
100
AcDbSymbolTable
 70
     1
  0
VPORT
  5
2389
330
8
100
AcDbSymbolTableRecord
100
AcDbViewportTableRecord
  2
*ACTIVE
 70
     0
 10
0.0
 20
0.0
 11
1.0
 21
1.0
 12
1634.9792428054
 22
996.0867148862471
 13
0.0
 23
0.0
 14
2.0
 24
2.0
 15
0.5
 25
0.5
 16
0.0
 26
0.0
 36
1.0
 17
0.0
 27
0.0
 37
0.0
 40
88.62486303519117
 41
2.090314136125655
 42
50.0
 43
0.0
 44
0.0
 50
0.0
 51
0.0
 71
     0
 72
  5000
 73
     1
 74
     0
 75
     0
 76
     0
 77
     0
 78
     2
  0
ENDTAB
  0
TABLE
  2
LTYPE
  5
5
330
0
100
AcDbSymbolTable
 70
     1
  0
LTYPE
  5
12
330
5
100
AcDbSymbolTableRecord
100
AcDbLinetypeTableRecord
  2
BYBLOCK
 70
     0
  3

 72
    65
 73
     0
 40
0.0
  0
LTYPE
  5
13
330
5
100
AcDbSymbolTableRecord
100
AcDbLinetypeTableRecord
  2
BYLAYER
 70
     0
  3

 72
    65
 73
     0
 40
0.0
  0
LTYPE
  5
14
330
5
100
AcDbSymbolTableRecord
100
AcDbLinetypeTableRecord
  2
CONTINUOUS
 70
     0
  3
Solid line
 72
    65
 73
     0
 40
0.0
  0
ENDTAB
  0
TABLE
  2
LAYER
  5
2
102
{ACAD_XDICTIONARY
360
C90
102
}
330
0
100
AcDbSymbolTable
 70
    10
  0
LAYER
  5
E
330
2
100
AcDbSymbolTableRecord
100
AcDbLayerTableRecord
  2
0
 70
     0
 62
     7
  6
CONTINUOUS
1001
RAK
1000
{ACAD
1070
     0
1070
     7
1000
CONTINUOUS
1000
ACAD}
  0
LAYER
  5
26
330
2
100
AcDbSymbolTableRecord
100
AcDbLayerTableRecord
  2
DEFPOINTS
 70
     0
 62
     7
  6
CONTINUOUS
1001
RAK
1000
{ACAD
1070
     0
1070
     7
1000
CONTINUOUS
1000
ACAD}
  0
LAYER
  5
2B
330
2
100
AcDbSymbolTableRecord
100
AcDbLayerTableRecord
  2
A-NOTE
 70
     0
 62
     4
  6
CONTINUOUS
1001
RAK
1000
{ACAD
1070
     0
1070
     4
1000
CONTINUOUS
1000
ACAD}
  0
LAYER
  5
39
330
2
100
AcDbSymbolTableRecord
100
AcDbLayerTableRecord
  2
A-TITLE
 70
     0
 62
     1
  6
CONTINUOUS
1001
RAK
1000
{ACAD
1070
     0
1070
     1
1000
CONTINUOUS
1000
ACAD}
  0
LAYER
  5
A21
330
2
100
AcDbSymbolTableRecord
100
AcDbLayerTableRecord
  2
A-HATCH
 70
     0
 62
     3
  6
CONTINUOUS
  0
LAYER
  5
24B6
330
2
100
AcDbSymbolTableRecord
100
AcDbLayerTableRecord
  2
A1
 70
     0
 62
     1
  6
CONTINUOUS
  0
LAYER
  5
2B9C
330
2
100
AcDbSymbolTableRecord
100
AcDbLayerTableRecord
  2
A-BRICK
 70
     0
 62
     1
  6
CONTINUOUS
1001
ACAECLAYERSTANDARD
1000

1000

  0
LAYER
  5
3E32
330
2
100
AcDbSymbolTableRecord
100
AcDbLayerTableRecord
  2
A-HATCH8
 70
     0
 62
     8
  6
CONTINUOUS
1001
ACAECLAYERSTANDARD
1000

1000

  0
LAYER
  5
3E33
330
2
100
AcDbSymbolTableRecord
100
AcDbLayerTableRecord
  2
A-MTL_GRID
 70
     0
 62
     6
  6
CONTINUOUS
1001
ACAECLAYERSTANDARD
1000

1000

  0
LAYER
  5
3E34
330
2
100
AcDbSymbolTableRecord
100
AcDbLayerTableRecord
  2
A-BACKING
 70
     0
 62
     3
  6
CONTINUOUS
1001
ACAECLAYERSTANDARD
1000

1000

  0
ENDTAB
  0
TABLE
  2
STYLE
  5
3
330
0
100
AcDbSymbolTable
 70
     4
  0
STYLE
  5
F
330
3
100
AcDbSymbolTableRecord
100
AcDbTextStyleTableRecord
  2
STANDARD
 70
     0
 40
0.0
 41
1.0
 50
0.0
 71
     0
 42
0.2
  3
romans.shx
  4

  0
STYLE
  5
5E
330
3
100
AcDbSymbolTableRecord
100
AcDbTextStyleTableRecord
  2
ROMANS
 70
     0
 40
0.0
 41
0.8
 50
0.0
 71
     0
 42
4.5
  3
romans.shx
  4

  0
STYLE
  5
24BC
330
3
100
AcDbSymbolTableRecord
100
AcDbTextStyleTableRecord
  2
A
 70
     0
 40
0.0
 41
0.8
 50
0.0
 71
     0
 42
0.25
  3
ARIAL.TTF
  4

1001
ACAD
1000
Arial
1071
       34
  0
STYLE
  5
24BE
330
3
100
AcDbSymbolTableRecord
100
AcDbTextStyleTableRecord
  2
ROMANT
 70
     0
 40
0.0
 41
1.0
 50
0.0
 71
     0
 42
0.09375
  3
ROMANT.SHX
  4

  0
ENDTAB
  0
TABLE
  2
VIEW
  5
6
330
0
100
AcDbSymbolTable
 70
     0
  0
ENDTAB
  0
TABLE
  2
UCS
  5
7
330
0
100
AcDbSymbolTable
 70
     0
  0
ENDTAB
  0
TABLE
  2
APPID
  5
9
330
0
100
AcDbSymbolTable
 70
    14
  0
APPID
  5
10
330
9
100
AcDbSymbolTableRecord
100
AcDbRegAppTableRecord
  2
ACAD
 70
     0
  0
APPID
  5
20
330
9
100
AcDbSymbolTableRecord
100
AcDbRegAppTableRecord
  2
RAK
 70
     0
  0
APPID
  5
63
330
9
100
AcDbSymbolTableRecord
100
AcDbRegAppTableRecord
  2
_KTI_ARCHT
 70
     0
  0
APPID
  5
15A
330
9
100
AcDbSymbolTableRecord
100
AcDbRegAppTableRecord
  2
ABNSLEADERTOOLS
 70
     0
  0
APPID
  5
2090
330
9
100
AcDbSymbolTableRecord
100
AcDbRegAppTableRecord
  2
ACAD_MLEADERVER
 70
     0
  0
APPID
  5
2287
330
9
100
AcDbSymbolTableRecord
100
AcDbRegAppTableRecord
  2
ACAD_EXEMPT_FROM_CAD_STAND
 70
     0
  0
APPID
  5
26FE
330
9
100
AcDbSymbolTableRecord
100
AcDbRegAppTableRecord
  2
ACAD_PSEXT
 70
     0
  0
APPID
  5
2AAF
330
9
100
AcDbSymbolTableRecord
100
AcDbRegAppTableRecord
  2
ACAECLAYERSTANDARD
 70
     0
  0
APPID
  5
2AB0
330
9
100
AcDbSymbolTableRecord
100
AcDbRegAppTableRecord
  2
ACDBDYNAMICBLOCKTRUENAME
 70
     0
  0
APPID
  5
2AB1
330
9
100
AcDbSymbolTableRecord
100
AcDbRegAppTableRecord
  2
ACDBBLOCKREPETAG
 70
     0
  0
APPID
  5
2BB3
330
9
100
AcDbSymbolTableRecord
100
AcDbRegAppTableRecord
  2
ACAD_DSTYLE_DIMJAG
 70
     0
  0
APPID
  5
2BB4
330
9
100
AcDbSymbolTableRecord
100
AcDbRegAppTableRecord
  2
ACAD_DSTYLE_DIMBREAK
 70
     0
  0
APPID
  5
2BB5
330
9
100
AcDbSymbolTableRecord
100
AcDbRegAppTableRecord
  2
ACAD_DSTYLE_DIMTALN
 70
     0
  0
APPID
  5
4323
330
9
100
AcDbSymbolTableRecord
100
AcDbRegAppTableRecord
  2
ACLAYERTOOLS
 70
     0
  0
ENDTAB
  0
TABLE
  2
DIMSTYLE
  5
A
330
0
100
AcDbSymbolTable
 70
     2
  0
DIMSTYLE
105
1D
330
A
100
AcDbSymbolTableRecord
100
AcDbDimStyleTableRecord
  2
STANDARD
 70
     0
  3

  4

  5

  6

  7

 40
1.0
 41
0.18
 42
0.0625
 43
0.38
 44
0.18
 45
0.0
 46
0.0
 47
0.0
 48
0.0
140
0.18
141
0.09
142
0.0
143
25.4
144
1.0
145
0.0
146
1.0
147
0.09
 71
     0
 72
     0
 73
     1
 74
     1
 75
     0
 76
     0
 77
     0
 78
     0
170
     0
171
     2
172
     0
173
     0
174
     0
175
     0
176
     0
177
     0
178
     0
270
     2
271
     4
272
     4
273
     2
274
     2
340
F
275
     0
280
     0
281
     0
282
     0
283
     1
284
     0
285
     0
286
     0
287
     3
288
     0
  0
DIMSTYLE
105
2BB6
330
A
100
AcDbSymbolTableRecord
100
AcDbDimStyleTableRecord
  2
DIM-1
 70
     0
  3

  4

  5

  6
ARCHTICK
  7
ARCHTICK
 40
4.0
 41
0.125
 42
0.0625
 43
0.0625
 44
0.0625
 45
0.0
 46
0.0625
 47
0.0
 48
0.0
140
0.09375
141
0.0625
142
0.0
143
25.4
144
1.0
145
0.0
146
1.0
147
0.0625
 71
     0
 72
     0
 73
     0
 74
     0
 75
     0
 76
     0
 77
     1
 78
     3
170
     0
171
     2
172
     0
173
     1
174
     0
175
     0
176
     0
177
     0
178
     0
270
     4
271
     4
272
     4
273
     2
274
     2
340
5E
275
     0
280
     0
281
     0
282
     0
283
     1
284
     0
285
     0
286
     0
287
     5
288
     0
1001
ACAD_DSTYLE_DIMBREAK
1070
   391
1040
0.125
1001
ACAD_DSTYLE_DIMJAG
1070
   388
1040
1.5
1001
ACAD_DSTYLE_DIMTALN
1070
   392
1070
     0
  0
ENDTAB
  0
TABLE
  2
BLOCK_RECORD
  5
1
330
0
100
AcDbSymbolTable
 70
     1
  0
BLOCK_RECORD
  5
18
102
{ACAD_XDICTIONARY
360
2283
102
}
330
1
100
AcDbSymbolTableRecord
100
AcDbBlockTableRecord
  2
*MODEL_SPACE
  0
BLOCK_RECORD
  5
15
102
{ACAD_XDICTIONARY
360
378F
102
}
330
1
100
AcDbSymbolTableRecord
100
AcDbBlockTableRecord
  2
*PAPER_SPACE
  0
BLOCK_RECORD
  5
55
330
1
100
AcDbSymbolTableRecord
100
AcDbBlockTableRecord
  2
_ARCHTICK
  0
ENDTAB
  0
ENDSEC
  0
SECTION
  2
BLOCKS
  0
BLOCK
  5
19
330
18
100
AcDbEntity
  8
0
100
AcDbBlockBegin
  2
*MODEL_SPACE
 70
     0
 10
0.0
 20
0.0
 30
0.0
  3
*MODEL_SPACE
  1

  0
ENDBLK
  5
1A
330
18
100
AcDbEntity
  8
0
100
AcDbBlockEnd
  0
BLOCK
  5
16
330
15
100
AcDbEntity
 67
     1
  8
0
100
AcDbBlockBegin
  2
*PAPER_SPACE
 70
     0
 10
0.0
 20
0.0
 30
0.0
  3
*PAPER_SPACE
  1

  0
ENDBLK
  5
17
330
15
100
AcDbEntity
 67
     1
  8
0
100
AcDbBlockEnd
  0
BLOCK
  5
56
330
55
100
AcDbEntity
  8
0
100
AcDbBlockBegin
  2
_ARCHTICK
 70
     0
 10
0.0
 20
0.0
 30
0.0
  3
_ARCHTICK
  1

  0
LWPOLYLINE
  5
57
330
55
100
AcDbEntity
  8
0
  6
BYBLOCK
 62
     0
100
AcDbPolyline
 90
        2
 70
     0
 43
0.15
 10
-0.5
 20
-0.5
 10
0.5
 20
0.5
  0
ENDBLK
  5
5B
330
55
100
AcDbEntity
  8
0
100
AcDbBlockEnd
  0
ENDSEC
  0
SECTION
  2
ENTITIES
  0
HATCH
  5
2C61
330
18
100
AcDbEntity
  8
DEFPOINTS
100
AcDbHatch
 10
0.0
 20
0.0
 30
0.0
210
0.0
220
0.0
230
1.0
  2
AR-SAND
 70
     0
 71
     0
 91
        1
 92
        1
 93
        6
 72
     1
 10
1557.337172703204
 20
1005.116402334205
 11
1557.337172703203
 21
1004.585152334205
 72
     1
 10
1557.337172703203
 20
1004.585152334205
 11
1556.829031629864
 21
1004.585152334205
 72
     2
 10
1556.19066763916
 20
1004.897652334205
 40
0.7107494879545938
 50
333.9167438996858
 51
386.0832561004044
 73
     1
 72
     1
 10
1556.829031629864
 20
1005.210152334205
 11
1557.149672703205
 21
1005.210152334205
 72
     2
 10
1557.153578953204
 20
1005.163277334205
 40
0.0470374788234641
 50
94.76364168988665
 51
265.2363583087218
 73
     1
 72
     1
 10
1557.149672703204
 20
1005.116402334205
 11
1557.337172703204
 21
1005.116402334205
 97
        0
 75
     0
 76
     1
 52
0.0
 41
1.0
 77
     0
 78
     4
 53
37.5
 43
1556.829031629864
 44
1004.585152334205
 45
-0.0629933581096082
 46
1.926823769013159
 79
     6
 49
0.0
 49
-1.52
 49
0.0
 49
-1.7
 49
0.0
 49
-1.625
 53
7.499999999999999
 43
1556.829031629864
 44
1004.585152334205
 45
1.769776705267727
 46
2.82214606522974
 79
     6
 49
0.0
 49
-0.82
 49
0.0
 49
-1.37
 49
0.0
 49
-0.525
 53
327.5
 43
1555.599031629864
 44
1004.585152334205
 45
3.114141861751495
 46
0.0056590535369645
 79
     6
 49
0.0
 49
-0.5
 49
0.0
 49
-1.8
 49
0.0
 49
-2.35
 53
317.5
 43
1555.599031629864
 44
1004.585152334205
 45
3.006126604572293
 46
0.8776755649342491
 79
     6
 49
0.0
 49
-0.25
 49
0.0
 49
-1.18
 49
0.0
 49
-1.35
 98
        1
 10
0.0
 20
0.0
1001
ACAD
1010
1556.829031629864
1020
1004.585152334205
1030
0.0
  0
LINE
  5
3FA9
330
18
100
AcDbEntity
  8
A-BACKING
100
AcDbLine
 10
1620.655610019522
 20
1013.397811510469
 30
0.0
 11
1610.523389259672
 21
1019.247651893657
 31
0.0
  0
LINE
  5
3FAA
330
18
100
AcDbEntity
  8
A-BACKING
100
AcDbLine
 10
1625.52700291581
 20
1010.210311510469
 30
0.0
 11
1625.851762442228
 21
1010.397811510469
 31
0.0
  0
LINE
  5
3FAB
330
18
100
AcDbEntity
  8
A-BACKING
100
AcDbLine
 10
1629.256750219002
 20
1008.556940900961
 30
0.0
 11
1629.256750219003
 21
996.994440900962
 31
0.0
  0
LINE
  5
3FAC
330
18
100
AcDbEntity
  8
A-BACKING
 62
     5
100
AcDbLine
 10
1626.964033858672
 20
1009.880641308773
 30
0.0
 11
1610.631642435145
 21
1019.310151893657
 31
0.0
  0
LINE
  5
3FAD
330
18
100
AcDbEntity
  8
A-BACKING
100
AcDbLine
 10
1610.323629733253
 20
1019.132320677306
 30
0.0
 11
1610.523389259672
 21
1019.247651893657
 31
0.0
  0
LINE
  5
3FAE
330
18
100
AcDbEntity
  8
A-BACKING
100
AcDbLine
 10
1610.523389259672
 20
1019.247651893657
 30
0.0
 11
1610.631642435145
 21
1019.310151893657
 31
0.0
  0
LINE
  5
3FAF
330
18
100
AcDbEntity
  8
A-BACKING
100
AcDbLine
 10
1629.906269271841
 20
1008.931940900961
 30
0.0
 11
1629.906269271841
 21
997.3694409009615
 31
0.0
  0
LINE
  5
3FB0
330
18
100
AcDbEntity
  8
A-BACKING
100
AcDbLine
 10
1629.906269271841
 20
1008.931940900961
 30
0.0
 11
1611.281161487983
 21
1019.685151893657
 31
0.0
  0
LINE
  5
3FB1
330
18
100
AcDbEntity
  8
A-BACKING
100
AcDbLine
 10
1610.631642435145
 20
1019.310151893657
 30
0.0
 11
1611.281161487983
 21
1019.685151893657
 31
0.0
  0
LINE
  5
3FB2
330
18
100
AcDbEntity
  8
A-BACKING
100
AcDbLine
 10
1629.256750219002
 20
1008.556940900961
 30
0.0
 11
1629.906269271841
 21
1008.931940900961
 31
0.0
  0
LWPOLYLINE
  5
3FB3
330
18
100
AcDbEntity
  8
A-BACKING
100
AcDbPolyline
 90
        6
 70
     0
 43
0.0
 10
1613.167377531192
 20
1020.595580992521
 10
1612.950871180246
 20
1020.470580992521
 10
1613.600390233085
 20
1020.095580992521
 10
1615.332441040654
 20
1021.095580992521
 10
1614.682921987815
 20
1021.470580992521
 10
1614.466415636869
 20
1021.345580992521
  0
LINE
  5
3FB4
330
18
100
AcDbEntity
  8
A-BACKING
100
AcDbLine
 10
1615.332441040654
 20
1021.095580992521
 30
0.0
 11
1615.332441040654
 21
1017.34614455336
 31
0.0
  0
LINE
  5
3FB5
330
18
100
AcDbEntity
  8
A-BACKING
100
AcDbLine
 10
1613.600390233085
 20
1020.095580992521
 30
0.0
 11
1613.600390233085
 21
1018.34614455336
 31
0.0
  0
LINE
  5
3FB6
330
18
100
AcDbEntity
  8
A-BACKING
100
AcDbLine
 10
1612.950871180246
 20
1020.470580992521
 30
0.0
 11
1612.950871180247
 21
1018.72114455336
 31
0.0
  0
LINE
  5
3FB7
330
18
100
AcDbEntity
  8
A-BACKING
100
AcDbLine
 10
1614.682921987815
 20
1021.470580992521
 30
0.0
 11
1614.682921987815
 21
1020.720580992521
 31
0.0
  0
LINE
  5
3FB8
330
18
100
AcDbEntity
  8
A-BACKING
100
AcDbLine
 10
1614.466415636869
 20
1021.345580992521
 30
0.0
 11
1614.466415636869
 21
1020.595580992521
 31
0.0
  0
LINE
  5
3FB9
330
18
100
AcDbEntity
  8
A-BACKING
100
AcDbLine
 10
1613.167377531192
 20
1020.595580992521
 30
0.0
 11
1613.167377531192
 21
1020.345580992521
 31
0.0
  0
LWPOLYLINE
  5
3FBA
330
18
100
AcDbEntity
  8
A-BACKING
100
AcDbPolyline
 90
        6
 70
     0
 43
0.0
 10
1629.639507294129
 20
1011.085392439763
 10
1629.423000943183
 20
1010.960392439763
 10
1630.072519996021
 20
1010.585392439763
 10
1631.80457080359
 20
1011.585392439763
 10
1631.155051750752
 20
1011.960392439763
 10
1630.938545399806
 20
1011.835392439763
  0
LINE
  5
3FBB
330
18
100
AcDbEntity
  8
A-BACKING
100
AcDbLine
 10
1631.80457080359
 20
1011.585392439763
 30
0.0
 11
1631.80457080359
 21
998.2734560006033
 31
0.0
  0
LINE
  5
3FBC
330
18
100
AcDbEntity
  8
A-BACKING
100
AcDbLine
 10
1630.072519996021
 20
1010.585392439763
 30
0.0
 11
1630.072519996021
 21
997.2734560006033
 31
0.0
  0
LINE
  5
3FBD
330
18
100
AcDbEntity
  8
A-BACKING
100
AcDbLine
 10
1629.423000943183
 20
1010.960392439763
 30
0.0
 11
1629.423000943183
 21
1009.210956000602
 31
0.0
  0
LINE
  5
3FBE
330
18
100
AcDbEntity
  8
A-BACKING
100
AcDbLine
 10
1631.155051750752
 20
1011.960392439763
 30
0.0
 11
1631.155051750752
 21
1011.210392439763
 31
0.0
  0
LINE
  5
3FBF
330
18
100
AcDbEntity
  8
A-BACKING
100
AcDbLine
 10
1630.938545399806
 20
1011.835392439763
 30
0.0
 11
1630.938545399806
 21
1011.085392439763
 31
0.0
  0
LINE
  5
3FC0
330
18
100
AcDbEntity
  8
A-BACKING
100
AcDbLine
 10
1629.639507294129
 20
1011.085392439763
 30
0.0
 11
1629.639507294129
 21
1010.835392439763
 31
0.0
  0
LINE
  5
3FC1
330
18
100
AcDbEntity
  8
A-BACKING
100
AcDbLine
 10
1630.072519996021
 20
997.2734560006033
 30
0.0
 11
1631.80457080359
 21
998.2734560006033
 31
0.0
  0
LINE
  5
3FC2
330
18
100
AcDbEntity
  8
A-BACKING
100
AcDbLine
 10
1629.906269271841
 20
997.3694409009615
 30
0.0
 11
1629.256750219003
 21
996.994440900962
 31
0.0
  0
LINE
  5
3FC3
330
18
100
AcDbEntity
  8
A-BACKING
100
AcDbLine
 10
1627.16274020961
 20
998.0784181435696
 30
0.0
 11
1628.166758450581
 21
997.4987479418736
 31
0.0
  0
LINE
  5
3FC4
330
18
100
AcDbEntity
  8
A-BACKING
100
AcDbLine
 10
1620.655610019522
 20
1013.397811510469
 30
0.0
 11
1626.855780683199
 21
1009.818141308773
 31
0.0
  0
LINE
  5
3FC5
330
18
100
AcDbEntity
  8
A-BACKING
100
AcDbLine
 10
1628.275011626053
 20
997.5612479418742
 30
0.0
 11
1629.256750219002
 21
996.9944409009613
 31
0.0
  0
LINE
  5
3FC6
330
18
100
AcDbEntity
  8
A-BACKING
100
AcDbLine
 10
1630.07251999602
 20
997.2734560006026
 30
0.0
 11
1629.90626927184
 21
997.369440900961
 31
0.0
  0
LINE
  5
3FC8
330
18
100
AcDbEntity
  8
A-BRICK
100
AcDbLine
 10
1615.460072762359
 20
1014.834956344477
 30
0.0
 11
1609.711490443625
 21
1018.153901893657
 31
0.0
  0
LINE
  5
3FC9
330
18
100
AcDbEntity
  8
A-BRICK
100
AcDbLine
 10
1615.893085464252
 20
1015.084956344477
 30
0.0
 11
1610.144503145517
 21
1018.403901893657
 31
0.0
  0
LINE
  5
3FCA
330
18
100
AcDbEntity
  8
A-BRICK
100
AcDbLine
 10
1616.076249037412
 20
1012.229206806207
 30
0.0
 11
1609.711490443624
 21
1015.903901893657
 31
0.0
  0
LINE
  5
3FCB
330
18
100
AcDbEntity
  8
A-BRICK
100
AcDbLine
 10
1610.144503145517
 20
1018.403901893657
 30
0.0
 11
1609.711490443624
 21
1018.153901893657
 31
0.0
  0
LINE
  5
3FCC
330
18
100
AcDbEntity
  8
A-BRICK
100
AcDbLine
 10
1609.711490443624
 20
1018.153901893657
 30
0.0
 11
1609.711490443624
 21
1015.903901893657
 31
0.0
  0
LINE
  5
3FD6
330
18
100
AcDbEntity
  8
A-BRICK
100
AcDbLine
 10
1612.904959120079
 20
1013.435151893657
 30
0.0
 11
1609.711490443625
 21
1015.278901893657
 31
0.0
  0
LINE
  5
3FD7
330
18
100
AcDbEntity
  8
A-BRICK
100
AcDbLine
 10
1613.337971821972
 20
1013.685151893657
 30
0.0
 11
1610.144503145517
 21
1015.528901893657
 31
0.0
  0
LINE
  5
3FD8
330
18
100
AcDbEntity
  8
A-BRICK
100
AcDbLine
 10
1612.90495912008
 20
1011.185151893657
 30
0.0
 11
1609.711490443624
 21
1013.028901893657
 31
0.0
  0
LINE
  5
3FD9
330
18
100
AcDbEntity
  8
A-BRICK
100
AcDbLine
 10
1610.144503145517
 20
1015.528901893657
 30
0.0
 11
1609.711490443625
 21
1015.278901893657
 31
0.0
  0
LINE
  5
3FDA
330
18
100
AcDbEntity
  8
A-BRICK
100
AcDbLine
 10
1609.711490443624
 20
1015.278901893657
 30
0.0
 11
1609.711490443624
 21
1013.028901893657
 31
0.0
  0
LINE
  5
4001
330
18
100
AcDbEntity
  8
A-BRICK
100
AcDbLine
 10
1618.255094518622
 20
1005.096249781107
 30
0.0
 11
1613.554478172918
 21
1007.810151893657
 31
0.0
  0
LWPOLYLINE
  5
400A
330
18
100
AcDbEntity
  8
A-BACKING
100
AcDbPolyline
 90
       13
 70
     0
 43
0.0
 10
1625.52700291581
 20
1010.210311510469
 10
1626.156410692573
 20
1007.707652917245
 10
1626.156410692573
 20
1007.054893627307
 10
1626.184809373589
 20
1006.316991792787
 10
1626.270005745884
 20
1005.664232502849
 10
1626.270005745884
 20
1004.78442648199
 10
1626.667588267848
 20
1003.67757389411
 10
1626.809582002175
 20
1002.42881695599
 10
1626.809582002175
 20
1000.981394189776
 10
1626.809582002175
 20
999.8745414379949
 10
1626.781183321159
 20
999.2785437898127
 10
1626.837980683192
 20
998.2852144854429
 10
1626.756227571388
 20
997.8437179624632
  0
LINE
  5
400B
330
18
100
AcDbEntity
  8
A-BACKING
100
AcDbLine
 10
1626.756227571388
 20
997.8437179624631
 30
0.0
 11
1627.16274020961
 21
998.0784181435694
 31
0.0
  0
LWPOLYLINE
  5
400C
330
18
100
AcDbEntity
  8
A-BACKING
100
AcDbPolyline
 90
       13
 70
     0
 43
0.0
 10
1625.851762442228
 20
1010.397811510468
 10
1626.481170218991
 20
1007.895152917245
 10
1626.481170218991
 20
1007.242393627307
 10
1626.509568900007
 20
1006.504491792786
 10
1626.594765272302
 20
1005.851732502849
 10
1626.594765272302
 20
1004.971926481989
 10
1626.992347794266
 20
1003.865073894109
 10
1627.134341528593
 20
1002.616316955989
 10
1627.134341528593
 20
1001.168894189776
 10
1627.134341528593
 20
1000.062041437994
 10
1627.105942847577
 20
999.4660437898123
 10
1627.16274020961
 20
998.4727144854425
 10
1627.16274020961
 20
998.0784181435696
  0
LWPOLYLINE
  5
400D
330
18
100
AcDbEntity
  8
A-BACKING
100
AcDbPolyline
 90
       13
 70
     0
 43
0.0
 10
1626.855780683199
 20
1009.818141308772
 10
1627.485188459962
 20
1007.315482715549
 10
1627.485188459962
 20
1006.662723425611
 10
1627.513587140979
 20
1005.92482159109
 10
1627.598783513273
 20
1005.272062301153
 10
1627.598783513273
 20
1004.392256280293
 10
1627.996366035238
 20
1003.285403692413
 10
1628.138359769564
 20
1002.036646754293
 10
1628.138359769564
 20
1000.58922398808
 10
1628.138359769564
 20
999.4823712362984
 10
1628.109961088548
 20
998.8863735881162
 10
1628.166758450581
 20
997.8930442837463
 10
1628.166758450581
 20
997.4987479418735
  0
LINE
  5
400E
330
18
100
AcDbEntity
  8
A-BACKING
100
AcDbLine
 10
1626.855780683199
 20
1009.818141308773
 30
0.0
 11
1626.964033858672
 21
1009.880641308773
 31
0.0
  0
LWPOLYLINE
  5
400F
330
18
100
AcDbEntity
  8
A-BACKING
 62
     5
100
AcDbPolyline
 90
       13
 70
     0
 43
0.0
 10
1626.964033858673
 20
1009.880641308773
 10
1627.593441635436
 20
1007.377982715549
 10
1627.593441635436
 20
1006.725223425612
 10
1627.621840316452
 20
1005.987321591091
 10
1627.707036688746
 20
1005.334562301153
 10
1627.707036688746
 20
1004.454756280294
 10
1628.104619210711
 20
1003.347903692414
 10
1628.246612945038
 20
1002.099146754294
 10
1628.246612945038
 20
1000.651723988081
 10
1628.246612945038
 20
999.5448712362993
 10
1628.218214264021
 20
998.9488735881171
 10
1628.275011626054
 20
997.9555442837473
 10
1628.275011626054
 20
997.5612479418744
  0
LINE
  5
4010
330
18
100
AcDbEntity
  8
A-BACKING
100
AcDbLine
 10
1628.166758450581
 20
997.4987479418736
 30
0.0
 11
1628.275011626054
 21
997.5612479418743
 31
0.0
  0
LINE
  5
4011
330
18
100
AcDbEntity
  8
A-BACKING
100
AcDbLine
 10
1626.964033858672
 20
1009.880641308773
 30
0.0
 11
1629.256750219002
 21
1008.556940900961
 31
0.0
  0
LINE
  5
4012
330
18
100
AcDbEntity
  8
A-MTL_GRID
100
AcDbLine
 10
1610.171566439385
 20
1019.044526893657
 30
0.0
 11
1610.198629733253
 21
1019.060151893657
 31
0.0
  0
LINE
  5
4013
330
18
100
AcDbEntity
  8
A-MTL_GRID
100
AcDbLine
 10
1610.198629733253
 20
1019.060151893657
 30
0.0
 11
1622.606504567452
 21
1011.896462018061
 31
0.0
  0
LINE
  5
4018
330
18
100
AcDbEntity
  8
A-MTL_GRID
100
AcDbLine
 10
1625.765403334108
 20
998.5377863664457
 30
0.0
 11
1625.470854756079
 21
998.3677286656314
 31
0.0
  0
LINE
  5
4019
330
18
100
AcDbEntity
  8
A-MTL_GRID
100
AcDbLine
 10
1625.470854756079
 20
998.3677286655991
 30
0.0
 11
1618.600637854993
 21
1002.334250242837
 31
0.0
  0
LINE
  5
4023
330
18
100
AcDbEntity
  8
A-MTL_GRID
100
AcDbLine
 10
1622.542832868121
 20
1011.859701145312
 30
0.0
 11
1610.171566439385
 21
1019.044526893657
 31
0.0
  0
LINE
  5
4024
330
18
100
AcDbEntity
  8
A-MTL_GRID
100
AcDbLine
 10
1623.325352052663
 20
1008.543935228969
 30
0.0
 11
1616.509261739305
 21
1012.479206806207
 31
0.0
  0
LINE
  5
4025
330
18
100
AcDbEntity
  8
A-MTL_GRID
100
AcDbLine
 10
1617.296598090761
 20
1009.149637951751
 30
0.0
 11
1619.317204296171
 21
1007.983040415131
 31
0.0
  0
LWPOLYLINE
  5
4026
330
18
100
AcDbEntity
  8
A-MTL_GRID
100
AcDbPolyline
 90
        3
 70
     0
 43
0.0
 10
1625.470854756079
 20
998.4302286656314
 10
1625.687361107025
 20
998.5552286656315
 10
1618.871270793675
 20
1002.490500242837
  0
LINE
  5
4027
330
18
100
AcDbEntity
  8
A-MTL_GRID
100
AcDbLine
 10
1610.171566439385
 20
1015.638276893657
 30
0.0
 11
1610.171566439385
 21
1015.513276893657
 31
0.0
  0
LINE
  5
4028
330
18
100
AcDbEntity
  8
A-MTL_GRID
100
AcDbLine
 10
1610.171566439385
 20
1012.763276893657
 30
0.0
 11
1610.171566439385
 21
1012.638276893658
 31
0.0
  0
LINE
  5
4029
330
18
100
AcDbEntity
  8
A-MTL_GRID
100
AcDbLine
 10
1610.171566439385
 20
1009.888276893657
 30
0.0
 11
1610.171566439385
 21
1009.763276893657
 31
0.0
  0
ELLIPSE
  5
4044
330
18
100
AcDbEntity
  8
A-MTL_GRID
100
AcDbEllipse
 10
1617.157591133562
 20
1013.862272901883
 30
0.0
 11
0.1148198316930119
 21
-0.1988737822086873
 31
0.0
210
0.0
220
0.0
230
0.9999999999999998
 40
0.5773502691899645
 41
0.0
 42
6.283185307179586
  0
ELLIPSE
  5
4045
330
18
100
AcDbEntity
  8
A-MTL_GRID
 62
     5
100
AcDbEllipse
 10
1617.21171772127
 20
1013.893522901898
 30
0.0
 11
0.1148198316930119
 21
-0.1988737822086873
 31
0.0
210
0.0
220
0.0
230
1.0
 40
0.5773502691899645
 41
3.379533778613869
 42
6.04524418266957
  0
ELLIPSE
  5
4052
330
18
100
AcDbEntity
  8
A-MTL_GRID
100
AcDbEllipse
 10
1618.781388765658
 20
1012.924772901883
 30
0.0
 11
0.1148198316930119
 21
-0.1988737822086873
 31
0.0
210
0.0
220
0.0
230
1.0
 40
0.5773502691899645
 41
0.0
 42
6.283185307179586
  0
ELLIPSE
  5
4053
330
18
100
AcDbEntity
  8
A-MTL_GRID
 62
     5
100
AcDbEllipse
 10
1618.835515353366
 20
1012.956022901898
 30
0.0
 11
0.1148198316930119
 21
-0.1988737822086873
 31
0.0
210
0.0
220
0.0
230
1.0
 40
0.5773502691899645
 41
3.379533778613869
 42
6.04524418266957
  0
ELLIPSE
  5
4054
330
18
100
AcDbEntity
  8
A-MTL_GRID
100
AcDbEllipse
 10
1618.240122888292
 20
1013.237272901883
 30
0.0
 11
0.1148198316930119
 21
-0.1988737822086873
 31
0.0
210
0.0
220
0.0
230
1.0
 40
0.5773502691899645
 41
0.0
 42
6.283185307179586
  0
ELLIPSE
  5
4055
330
18
100
AcDbEntity
  8
A-MTL_GRID
 62
     5
100
AcDbEllipse
 10
1618.294249476001
 20
1013.268522901898
 30
0.0
 11
0.1148198316930119
 21
-0.1988737822086873
 31
0.0
210
0.0
220
0.0
230
1.0
 40
0.5773502691899645
 41
3.379533778613869
 42
6.04524418266957
  0
ELLIPSE
  5
4056
330
18
100
AcDbEntity
  8
A-MTL_GRID
100
AcDbEllipse
 10
1617.698857010927
 20
1013.549772901883
 30
0.0
 11
0.1148198316930119
 21
-0.1988737822086873
 31
0.0
210
0.0
220
0.0
230
1.0
 40
0.5773502691899645
 41
0.0
 42
6.283185307179586
  0
ELLIPSE
  5
4057
330
18
100
AcDbEntity
  8
A-MTL_GRID
 62
     5
100
AcDbEllipse
 10
1617.752983598636
 20
1013.581022901898
 30
0.0
 11
0.1148198316930119
 21
-0.1988737822086873
 31
0.0
210
0.0
220
0.0
230
1.0
 40
0.5773502691899645
 41
3.379533778613869
 42
6.04524418266957
  0
ELLIPSE
  5
4058
330
18
100
AcDbEntity
  8
A-MTL_GRID
100
AcDbEllipse
 10
1617.428224072245
 20
1010.706022901883
 30
0.0
 11
0.1148198316930119
 21
-0.1988737822086873
 31
0.0
210
0.0
220
0.0
230
1.0
 40
0.5773502691899645
 41
0.0
 42
6.283185307179586
  0
ELLIPSE
  5
4059
330
18
100
AcDbEntity
  8
A-MTL_GRID
 62
     5
100
AcDbEllipse
 10
1617.482350659953
 20
1010.737272901899
 30
0.0
 11
0.1148198316930119
 21
-0.1988737822086873
 31
0.0
210
0.0
220
0.0
230
1.0
 40
0.5773502691899645
 41
3.379533778613869
 42
6.04524418266957
  0
ELLIPSE
  5
405A
330
18
100
AcDbEntity
  8
A-MTL_GRID
100
AcDbEllipse
 10
1616.88695819488
 20
1011.018522901883
 30
0.0
 11
0.1148198316930119
 21
-0.1988737822086873
 31
0.0
210
0.0
220
0.0
230
1.0
 40
0.5773502691899645
 41
5.582665686235212
 42
9.16704516738256
  0
ELLIPSE
  5
405B
330
18
100
AcDbEntity
  8
A-MTL_GRID
 62
     5
100
AcDbEllipse
 10
1616.941084782588
 20
1011.049772901899
 30
0.0
 11
0.1148198316930119
 21
-0.1988737822086873
 31
0.0
210
0.0
220
0.0
230
1.0
 40
0.5773502691899645
 41
5.112274273632201
 42
6.04524418266957
  0
ELLIPSE
  5
4060
330
18
100
AcDbEntity
  8
A-MTL_GRID
100
AcDbEllipse
 10
1619.052021704341
 20
1009.768522901883
 30
0.0
 11
0.1148198316930119
 21
-0.1988737822086873
 31
0.0
210
0.0
220
0.0
230
1.0
 40
0.5773502691899645
 41
0.0
 42
6.283185307179586
  0
ELLIPSE
  5
4061
330
18
100
AcDbEntity
  8
A-MTL_GRID
 62
     5
100
AcDbEllipse
 10
1619.106148292049
 20
1009.799772901899
 30
0.0
 11
0.1148198316930119
 21
-0.1988737822086873
 31
0.0
210
0.0
220
0.0
230
1.0
 40
0.5773502691899645
 41
3.379533778613869
 42
6.04524418266957
  0
ELLIPSE
  5
4062
330
18
100
AcDbEntity
  8
A-MTL_GRID
100
AcDbEllipse
 10
1618.510755826975
 20
1010.081022901883
 30
0.0
 11
0.1148198316930119
 21
-0.1988737822086873
 31
0.0
210
0.0
220
0.0
230
1.0
 40
0.5773502691899645
 41
0.0
 42
6.283185307179586
  0
ELLIPSE
  5
4063
330
18
100
AcDbEntity
  8
A-MTL_GRID
 62
     5
100
AcDbEllipse
 10
1618.564882414684
 20
1010.112272901899
 30
0.0
 11
0.1148198316930119
 21
-0.1988737822086873
 31
0.0
210
0.0
220
0.0
230
1.0
 40
0.5773502691899645
 41
3.379533778613869
 42
6.04524418266957
  0
ELLIPSE
  5
4064
330
18
100
AcDbEntity
  8
A-MTL_GRID
100
AcDbEllipse
 10
1617.96948994961
 20
1010.393522901883
 30
0.0
 11
0.1148198316930119
 21
-0.1988737822086873
 31
0.0
210
0.0
220
0.0
230
1.0
 40
0.5773502691899645
 41
0.0
 42
6.283185307179586
  0
ELLIPSE
  5
4065
330
18
100
AcDbEntity
  8
A-MTL_GRID
 62
     5
100
AcDbEllipse
 10
1618.023616537319
 20
1010.424772901899
 30
0.0
 11
0.1148198316930119
 21
-0.1988737822086873
 31
0.0
210
0.0
220
0.0
230
1.0
 40
0.5773502691899645
 41
3.379533778613869
 42
6.04524418266957
  0
ELLIPSE
  5
4068
330
18
100
AcDbEntity
  8
A-MTL_GRID
100
AcDbEllipse
 10
1618.781388765658
 20
1007.049772901883
 30
0.0
 11
0.1148198316930119
 21
-0.1988737822086873
 31
0.0
210
0.0
220
0.0
230
1.0
 40
0.5773502691899645
 41
0.0
 42
6.283185307179586
  0
ELLIPSE
  5
4069
330
18
100
AcDbEntity
  8
A-MTL_GRID
 62
     5
100
AcDbEllipse
 10
1618.835515353366
 20
1007.081022901898
 30
0.0
 11
0.1148198316930119
 21
-0.1988737822086873
 31
0.0
210
0.0
220
0.0
230
1.0
 40
0.5773502691899645
 41
3.379533778613869
 42
6.04524418266957
  0
ELLIPSE
  5
406A
330
18
100
AcDbEntity
  8
A-MTL_GRID
100
AcDbEllipse
 10
1618.240122888292
 20
1007.362272901883
 30
0.0
 11
0.1148198316930119
 21
-0.1988737822086873
 31
0.0
210
0.0
220
0.0
230
1.0
 40
0.5773502691899645
 41
0.0
 42
6.283185307179586
  0
ELLIPSE
  5
406B
330
18
100
AcDbEntity
  8
A-MTL_GRID
 62
     5
100
AcDbEllipse
 10
1618.294249476001
 20
1007.393522901898
 30
0.0
 11
0.1148198316930119
 21
-0.1988737822086873
 31
0.0
210
0.0
220
0.0
230
1.0
 40
0.5773502691899645
 41
3.379533778613869
 42
6.04524418266957
  0
ELLIPSE
  5
406C
330
18
100
AcDbEntity
  8
A-MTL_GRID
100
AcDbEllipse
 10
1617.698857010927
 20
1007.674772901883
 30
0.0
 11
0.1148198316930119
 21
-0.1988737822086873
 31
0.0
210
0.0
220
0.0
230
1.0
 40
0.5773502691899645
 41
5.43169822345204
 42
9.318012630166628
  0
ELLIPSE
  5
406D
330
18
100
AcDbEntity
  8
A-MTL_GRID
 62
     5
100
AcDbEllipse
 10
1617.752983598636
 20
1007.706022901898
 30
0.0
 11
0.1148198316930119
 21
-0.1988737822086873
 31
0.0
210
0.0
220
0.0
230
1.0
 40
0.5773502691899645
 41
3.379533778613869
 42
3.560557719972397
  0
LWPOLYLINE
  5
406E
330
18
100
AcDbEntity
  8
A-MTL_GRID
 62
     5
100
AcDbPolyline
 90
        2
 70
     0
 43
0.0
 10
1619.089386464472
 20
1013.616901858824
 10
1618.764626938053
 20
1013.805511539238
  0
LWPOLYLINE
  5
406F
330
18
100
AcDbEntity
  8
A-MTL_GRID
 62
     5
100
AcDbPolyline
 90
        4
 70
     0
 43
0.0
 10
1619.089386464472
 20
1013.616901858824
 10
1619.008984489871
 20
1013.640708725901
 42
-0.0761828390296885
 10
1618.809799036292
 20
1013.734468003512
 42
-0.2091861054933992
 10
1618.764626938053
 20
1013.805511539238
 42
12.96733111995141
  0
LWPOLYLINE
  5
4070
330
18
100
AcDbEntity
  8
A-MTL_GRID
 62
     5
100
AcDbPolyline
 90
        3
 70
     0
 43
0.0
 10
1618.905820339104
 20
1013.680001108033
 10
1618.991663890118
 20
1013.620514422151
 42
-0.0298431965792944
 10
1619.072492730081
 20
1013.557046671576
 42
2.222930909368133
  0
LWPOLYLINE
  5
4071
330
18
100
AcDbEntity
  8
A-MTL_GRID
 62
     5
100
AcDbPolyline
 90
        2
 70
     0
 43
0.0
 10
1616.274803902173
 20
1015.241901858825
 10
1615.950044375754
 20
1015.430511539238
  0
LWPOLYLINE
  5
4072
330
18
100
AcDbEntity
  8
A-MTL_GRID
 62
     5
100
AcDbPolyline
 90
        4
 70
     0
 43
0.0
 10
1616.274803902173
 20
1015.241901858825
 10
1616.194401927571
 20
1015.265708725902
 42
-0.0761828390296885
 10
1615.995216473993
 20
1015.359468003512
 42
-0.2091861054933992
 10
1615.950044375754
 20
1015.430511539238
 42
12.96733111995141
  0
LWPOLYLINE
  5
4073
330
18
100
AcDbEntity
  8
A-MTL_GRID
 62
     5
100
AcDbPolyline
 90
        3
 70
     0
 43
0.0
 10
1616.091237776805
 20
1015.305001108033
 10
1616.177081327819
 20
1015.245514422152
 42
-0.0298431965792944
 10
1616.257910167781
 20
1015.182046671576
 42
2.222930909368133
  0
LWPOLYLINE
  5
4074
330
18
100
AcDbEntity
  8
A-MTL_GRID
 62
     5
100
AcDbPolyline
 90
        2
 70
     0
 43
0.0
 10
1613.460221339873
 20
1016.866901858825
 10
1613.135461813454
 20
1017.055511539238
  0
LWPOLYLINE
  5
4075
330
18
100
AcDbEntity
  8
A-MTL_GRID
 62
     5
100
AcDbPolyline
 90
        4
 70
     0
 43
0.0
 10
1613.460221339873
 20
1016.866901858825
 10
1613.379819365272
 20
1016.890708725902
 42
-0.0761828390296885
 10
1613.180633911693
 20
1016.984468003512
 42
-0.2091861054933992
 10
1613.135461813454
 20
1017.055511539238
 42
12.96733111995141
  0
LWPOLYLINE
  5
4076
330
18
100
AcDbEntity
  8
A-MTL_GRID
 62
     5
100
AcDbPolyline
 90
        3
 70
     0
 43
0.0
 10
1613.276655214506
 20
1016.930001108033
 10
1613.362498765519
 20
1016.870514422152
 42
-0.0298431965792944
 10
1613.443327605482
 20
1016.807046671576
 42
2.222930909368133
  0
LWPOLYLINE
  5
4077
330
18
100
AcDbEntity
  8
A-MTL_GRID
 62
     5
100
AcDbPolyline
 90
        2
 70
     0
 43
0.0
 10
1610.645638777574
 20
1018.491901858825
 10
1610.320879251155
 20
1018.680511539239
  0
LWPOLYLINE
  5
4078
330
18
100
AcDbEntity
  8
A-MTL_GRID
 62
     5
100
AcDbPolyline
 90
        4
 70
     0
 43
0.0
 10
1610.645638777575
 20
1018.491901858825
 10
1610.565236802973
 20
1018.515708725902
 42
-0.0761828390296885
 10
1610.366051349394
 20
1018.609468003513
 42
-0.2091861054933992
 10
1610.320879251155
 20
1018.680511539239
 42
12.96733111995141
  0
LWPOLYLINE
  5
4079
330
18
100
AcDbEntity
  8
A-MTL_GRID
 62
     5
100
AcDbPolyline
 90
        3
 70
     0
 43
0.0
 10
1610.462072652207
 20
1018.555001108034
 10
1610.54791620322
 20
1018.495514422152
 42
-0.0298431965792944
 10
1610.628745043183
 20
1018.432046671577
 42
2.222930909368133
  0
LWPOLYLINE
  5
407A
330
18
100
AcDbEntity
  8
A-MTL_GRID
 62
     5
100
AcDbPolyline
 90
        2
 70
     0
 43
0.0
 10
1617.682095183322
 20
1011.429401858825
 10
1617.357335656904
 20
1011.618011539238
  0
LWPOLYLINE
  5
407B
330
18
100
AcDbEntity
  8
A-MTL_GRID
 62
     5
100
AcDbPolyline
 90
        4
 70
     0
 43
0.0
 10
1617.682095183323
 20
1011.429401858825
 10
1617.601693208721
 20
1011.453208725902
 42
-0.0761828390296885
 10
1617.402507755142
 20
1011.546968003512
 42
-0.2091861054933992
 10
1617.357335656904
 20
1011.618011539238
 42
12.96733111995141
  0
LWPOLYLINE
  5
407C
330
18
100
AcDbEntity
  8
A-MTL_GRID
 62
     5
100
AcDbPolyline
 90
        3
 70
     0
 43
0.0
 10
1617.498529057955
 20
1011.492501108033
 10
1617.584372608969
 20
1011.433014422152
 42
-0.0298431965792944
 10
1617.665201448931
 20
1011.369546671576
 42
2.222930909368133
  0
LWPOLYLINE
  5
4080
330
18
100
AcDbEntity
  8
A-MTL_GRID
 62
     5
100
AcDbPolyline
 90
        2
 70
     0
 43
0.0
 10
1619.089386464472
 20
1007.741901858825
 10
1618.764626938053
 20
1007.930511539238
  0
LWPOLYLINE
  5
4081
330
18
100
AcDbEntity
  8
A-MTL_GRID
 62
     5
100
AcDbPolyline
 90
        4
 70
     0
 43
0.0
 10
1619.089386464472
 20
1007.741901858825
 10
1619.008984489871
 20
1007.765708725902
 42
-0.0761828390296885
 10
1618.809799036292
 20
1007.859468003512
 42
-0.2091861054933992
 10
1618.764626938053
 20
1007.930511539238
 42
12.96733111995141
  0
LWPOLYLINE
  5
4082
330
18
100
AcDbEntity
  8
A-MTL_GRID
 62
     5
100
AcDbPolyline
 90
        3
 70
     0
 43
0.0
 10
1618.905820339104
 20
1007.805001108033
 10
1618.991663890118
 20
1007.745514422152
 42
-0.0298431965792944
 10
1619.072492730081
 20
1007.682046671576
 42
2.222930909368133
  0
LINE
  5
4090
330
18
100
AcDbEntity
  8
A-MTL_GRID
100
AcDbLine
 10
1624.112688404119
 20
1005.214366374512
 30
0.0
 11
1617.296598090761
 21
1009.149637951751
 31
0.0
  0
LINE
  5
4095
330
18
100
AcDbEntity
  8
A-MTL_GRID
100
AcDbLine
 10
1617.003579526783
 20
1008.980463604961
 30
0.0
 11
1623.913198860833
 21
1004.991193022449
 31
0.0
  0
LINE
  5
4096
330
18
100
AcDbEntity
  8
A-MTL_GRID
100
AcDbLine
 10
1624.926032541631
 20
1001.774813122335
 30
0.0
 11
1624.737644992366
 21
1001.666047520055
 31
0.0
  0
LINE
  5
4097
330
18
100
AcDbEntity
  8
A-MTL_GRID
100
AcDbLine
 10
1624.737644992366
 20
1001.791047520055
 30
0.0
 11
1624.900024755577
 21
1001.884797520055
 31
0.0
  0
LINE
  5
4098
330
18
100
AcDbEntity
  8
A-MTL_GRID
100
AcDbLine
 10
1624.900024755576
 20
1001.884797520055
 30
0.0
 11
1618.083934442218
 21
1005.820069097294
 31
0.0
  0
ELLIPSE
  5
4099
330
18
100
AcDbEntity
  8
A-MTL_GRID
100
AcDbEllipse
 10
1624.737644992366
 20
1001.728547520055
 30
0.0
 11
-0.03827327723120517
 21
-0.06629126073638537
 31
0.0
210
0.0
220
0.0
230
0.9999999999999999
 40
0.57735026919089
 41
3.926990816987889
 42
7.068583470573482
  0
LINE
  5
409A
330
18
100
AcDbEntity
  8
A-MTL_GRID
100
AcDbLine
 10
1624.737644992366
 20
1001.728547520055
 30
0.0
 11
1624.891651343313
 21
1001.817463128231
 31
0.0
  0
ARC
  5
409B
330
18
100
AcDbEntity
  8
A-MTL_GRID
100
AcDbCircle
 10
1624.891651343313
 20
1001.64027445325
 30
0.0
 40
0.1621855859806277
100
AcDbArc
 50
46.08804822358874
 51
101.1092566817082
  0
ARC
  5
409C
330
18
100
AcDbEntity
  8
A-MTL_GRID
100
AcDbCircle
 10
1624.796739407362
 20
1001.958128239655
 30
0.0
 40
0.1696907456461836
100
AcDbArc
 50
304.008991205357
 51
349.7667000298786
  0
LINE
  5
409D
330
18
100
AcDbEntity
  8
A-MTL_GRID
100
AcDbLine
 10
1617.79091587824
 20
1005.650894750504
 30
0.0
 11
1624.70053521233
 21
1001.661624167972
 31
0.0
  0
LINE
  5
409E
330
18
100
AcDbEntity
  8
A-MTL_GRID
100
AcDbLine
 10
1610.171566439385
 20
1019.044526893657
 30
0.0
 11
1610.171566439385
 21
1018.388276893658
 31
0.0
  0
ELLIPSE
  5
409F
330
18
100
AcDbEntity
  8
A-BACKING
100
AcDbEllipse
 10
1610.448629733253
 20
1019.060151893657
 30
0.0
 11
-0.1767766952961826
 21
0.0
 31
0.0
210
0.0
220
0.0
230
1.0
 40
0.5773502691902205
 41
5.497787143782336
 42
8.63937979737122
  0
ELLIPSE
  5
40A0
330
18
100
AcDbEntity
  8
A-BACKING
100
AcDbEllipse
 10
1610.698629733252
 20
1018.915814326359
 30
0.0
 11
-0.1767766952961826
 21
0.0
 31
0.0
210
0.0
220
0.0
230
1.0
 40
0.5773502691902205
 41
5.497787143782336
 42
8.63937979737122
  0
ELLIPSE
  5
40A1
330
18
100
AcDbEntity
  8
A-BACKING
100
AcDbEllipse
 10
1610.948629733252
 20
1018.771476759062
 30
0.0
 11
-0.1767766952961826
 21
0.0
 31
0.0
210
0.0
220
0.0
230
1.0
 40
0.5773502691902205
 41
5.497787143782336
 42
8.63937979737122
  0
ELLIPSE
  5
40A2
330
18
100
AcDbEntity
  8
A-BACKING
100
AcDbEllipse
 10
1611.198629733251
 20
1018.627139191765
 30
0.0
 11
-0.1767766952961826
 21
0.0
 31
0.0
210
0.0
220
0.0
230
1.0
 40
0.5773502691902205
 41
5.497787143782336
 42
8.63937979737122
  0
ELLIPSE
  5
40A3
330
18
100
AcDbEntity
  8
A-BACKING
100
AcDbEllipse
 10
1611.448629733251
 20
1018.482801624467
 30
0.0
 11
-0.1767766952961826
 21
0.0
 31
0.0
210
0.0
220
0.0
230
1.0
 40
0.5773502691902205
 41
5.497787143782336
 42
8.63937979737122
  0
ELLIPSE
  5
40A4
330
18
100
AcDbEntity
  8
A-BACKING
100
AcDbEllipse
 10
1611.698629733251
 20
1018.33846405717
 30
0.0
 11
-0.1767766952961826
 21
0.0
 31
0.0
210
0.0
220
0.0
230
1.0
 40
0.5773502691902205
 41
5.497787143782336
 42
8.63937979737122
  0
ELLIPSE
  5
40A5
330
18
100
AcDbEntity
  8
A-BACKING
100
AcDbEllipse
 10
1611.948629733251
 20
1018.194126489872
 30
0.0
 11
-0.1767766952961826
 21
0.0
 31
0.0
210
0.0
220
0.0
230
1.0
 40
0.5773502691902205
 41
5.497787143782336
 42
8.63937979737122
  0
ELLIPSE
  5
40A6
330
18
100
AcDbEntity
  8
A-BACKING
100
AcDbEllipse
 10
1612.19862973325
 20
1018.049788922575
 30
0.0
 11
-0.1767766952961826
 21
0.0
 31
0.0
210
0.0
220
0.0
230
1.0
 40
0.5773502691902205
 41
5.497787143782336
 42
8.63937979737122
  0
ELLIPSE
  5
40A7
330
18
100
AcDbEntity
  8
A-BACKING
100
AcDbEllipse
 10
1612.44862973325
 20
1017.905451355277
 30
0.0
 11
-0.1767766952961826
 21
0.0
 31
0.0
210
0.0
220
0.0
230
1.0
 40
0.5773502691902205
 41
5.497787143782336
 42
8.63937979737122
  0
ELLIPSE
  5
40A8
330
18
100
AcDbEntity
  8
A-BACKING
100
AcDbEllipse
 10
1612.698629733249
 20
1017.76111378798
 30
0.0
 11
-0.1767766952961826
 21
0.0
 31
0.0
210
0.0
220
0.0
230
1.0
 40
0.5773502691902205
 41
5.497787143782336
 42
8.63937979737122
  0
ELLIPSE
  5
40A9
330
18
100
AcDbEntity
  8
A-BACKING
100
AcDbEllipse
 10
1612.948629733249
 20
1017.616776220683
 30
0.0
 11
-0.1767766952961826
 21
0.0
 31
0.0
210
0.0
220
0.0
230
1.0
 40
0.5773502691902205
 41
5.497787143782336
 42
8.63937979737122
  0
ELLIPSE
  5
40AA
330
18
100
AcDbEntity
  8
A-BACKING
100
AcDbEllipse
 10
1613.198629733249
 20
1017.472438653385
 30
0.0
 11
-0.1767766952961826
 21
0.0
 31
0.0
210
0.0
220
0.0
230
1.0
 40
0.5773502691902205
 41
5.497787143782336
 42
8.63937979737122
  0
ELLIPSE
  5
40AB
330
18
100
AcDbEntity
  8
A-BACKING
100
AcDbEllipse
 10
1613.448629733248
 20
1017.328101086088
 30
0.0
 11
-0.1767766952961826
 21
0.0
 31
0.0
210
0.0
220
0.0
230
1.0
 40
0.5773502691902205
 41
5.497787143782336
 42
8.63937979737122
  0
ELLIPSE
  5
40AC
330
18
100
AcDbEntity
  8
A-BACKING
100
AcDbEllipse
 10
1613.698629733248
 20
1017.18376351879
 30
0.0
 11
-0.1767766952961826
 21
0.0
 31
0.0
210
0.0
220
0.0
230
1.0
 40
0.5773502691902205
 41
5.497787143782336
 42
8.63937979737122
  0
ELLIPSE
  5
40AD
330
18
100
AcDbEntity
  8
A-BACKING
100
AcDbEllipse
 10
1613.948629733248
 20
1017.039425951493
 30
0.0
 11
-0.1767766952961826
 21
0.0
 31
0.0
210
0.0
220
0.0
230
1.0
 40
0.5773502691902205
 41
5.497787143782336
 42
8.63937979737122
  0
ELLIPSE
  5
40AE
330
18
100
AcDbEntity
  8
A-BACKING
100
AcDbEllipse
 10
1614.198629733247
 20
1016.895088384196
 30
0.0
 11
-0.1767766952961826
 21
0.0
 31
0.0
210
0.0
220
0.0
230
1.0
 40
0.5773502691902205
 41
5.497787143782336
 42
8.63937979737122
  0
ELLIPSE
  5
40AF
330
18
100
AcDbEntity
  8
A-BACKING
100
AcDbEllipse
 10
1614.448629733247
 20
1016.750750816898
 30
0.0
 11
-0.1767766952961826
 21
0.0
 31
0.0
210
0.0
220
0.0
230
1.0
 40
0.5773502691902205
 41
5.497787143782336
 42
8.63937979737122
  0
ELLIPSE
  5
40B0
330
18
100
AcDbEntity
  8
A-BACKING
100
AcDbEllipse
 10
1614.698629733246
 20
1016.606413249601
 30
0.0
 11
-0.1767766952961826
 21
0.0
 31
0.0
210
0.0
220
0.0
230
1.0
 40
0.5773502691902205
 41
5.497787143782336
 42
8.63937979737122
  0
ELLIPSE
  5
40B1
330
18
100
AcDbEntity
  8
A-BACKING
100
AcDbEllipse
 10
1614.948629733246
 20
1016.462075682303
 30
0.0
 11
-0.1767766952961826
 21
0.0
 31
0.0
210
0.0
220
0.0
230
1.0
 40
0.5773502691902205
 41
5.497787143782336
 42
8.63937979737122
  0
ELLIPSE
  5
40B2
330
18
100
AcDbEntity
  8
A-BACKING
100
AcDbEllipse
 10
1615.198629733246
 20
1016.317738115006
 30
0.0
 11
-0.1767766952961826
 21
0.0
 31
0.0
210
0.0
220
0.0
230
1.0
 40
0.5773502691902205
 41
5.497787143782336
 42
8.63937979737122
  0
ELLIPSE
  5
40B3
330
18
100
AcDbEntity
  8
A-BACKING
100
AcDbEllipse
 10
1615.448629733245
 20
1016.173400547708
 30
0.0
 11
-0.1767766952961826
 21
0.0
 31
0.0
210
0.0
220
0.0
230
1.0
 40
0.5773502691902205
 41
5.497787143782336
 42
8.63937979737122
  0
ELLIPSE
  5
40B4
330
18
100
AcDbEntity
  8
A-BACKING
100
AcDbEllipse
 10
1615.698629733245
 20
1016.029062980411
 30
0.0
 11
-0.1767766952961826
 21
0.0
 31
0.0
210
0.0
220
0.0
230
1.0
 40
0.5773502691902205
 41
5.497787143782336
 42
8.63937979737122
  0
ELLIPSE
  5
40B5
330
18
100
AcDbEntity
  8
A-BACKING
100
AcDbEllipse
 10
1615.948629733244
 20
1015.884725413114
 30
0.0
 11
-0.1767766952961826
 21
0.0
 31
0.0
210
0.0
220
0.0
230
1.0
 40
0.5773502691902205
 41
5.497787143782336
 42
8.63937979737122
  0
ELLIPSE
  5
40B6
330
18
100
AcDbEntity
  8
A-BACKING
100
AcDbEllipse
 10
1616.198629733244
 20
1015.740387845816
 30
0.0
 11
-0.1767766952961826
 21
0.0
 31
0.0
210
0.0
220
0.0
230
1.0
 40
0.5773502691902205
 41
5.497787143782336
 42
8.63937979737122
  0
ELLIPSE
  5
40B7
330
18
100
AcDbEntity
  8
A-BACKING
100
AcDbEllipse
 10
1616.448629733244
 20
1015.596050278519
 30
0.0
 11
-0.1767766952961826
 21
0.0
 31
0.0
210
0.0
220
0.0
230
1.0
 40
0.5773502691902205
 41
5.497787143782336
 42
8.63937979737122
  0
ELLIPSE
  5
40B8
330
18
100
AcDbEntity
  8
A-BACKING
100
AcDbEllipse
 10
1616.698629733243
 20
1015.451712711221
 30
0.0
 11
-0.1767766952961826
 21
0.0
 31
0.0
210
0.0
220
0.0
230
1.0
 40
0.5773502691902205
 41
5.497787143782336
 42
8.63937979737122
  0
ELLIPSE
  5
40B9
330
18
100
AcDbEntity
  8
A-BACKING
100
AcDbEllipse
 10
1616.948629733243
 20
1015.307375143924
 30
0.0
 11
-0.1767766952961826
 21
0.0
 31
0.0
210
0.0
220
0.0
230
1.0
 40
0.5773502691902205
 41
5.497787143782336
 42
8.63937979737122
  0
ELLIPSE
  5
40BA
330
18
100
AcDbEntity
  8
A-BACKING
100
AcDbEllipse
 10
1617.198629733245
 20
1015.163037576628
 30
0.0
 11
-0.1767766952961826
 21
0.0
 31
0.0
210
0.0
220
0.0
230
1.0
 40
0.5773502691902205
 41
5.497787143782336
 42
8.63937979737122
  0
ELLIPSE
  5
40BB
330
18
100
AcDbEntity
  8
A-BACKING
100
AcDbEllipse
 10
1617.448629733245
 20
1015.01870000933
 30
0.0
 11
-0.1767766952961826
 21
0.0
 31
0.0
210
0.0
220
0.0
230
1.0
 40
0.5773502691902205
 41
5.497787143782336
 42
8.63937979737122
  0
ELLIPSE
  5
40BC
330
18
100
AcDbEntity
  8
A-BACKING
100
AcDbEllipse
 10
1617.698629733244
 20
1014.874362442033
 30
0.0
 11
-0.1767766952961826
 21
0.0
 31
0.0
210
0.0
220
0.0
230
1.0
 40
0.5773502691902205
 41
5.497787143782336
 42
8.63937979737122
  0
ELLIPSE
  5
40BD
330
18
100
AcDbEntity
  8
A-BACKING
100
AcDbEllipse
 10
1617.948629733244
 20
1014.730024874736
 30
0.0
 11
-0.1767766952961826
 21
0.0
 31
0.0
210
0.0
220
0.0
230
1.0
 40
0.5773502691902205
 41
5.497787143782336
 42
8.63937979737122
  0
ELLIPSE
  5
40BE
330
18
100
AcDbEntity
  8
A-BACKING
100
AcDbEllipse
 10
1618.198629733244
 20
1014.585687307438
 30
0.0
 11
-0.1767766952961826
 21
0.0
 31
0.0
210
0.0
220
0.0
230
1.0
 40
0.5773502691902205
 41
5.497787143782336
 42
8.63937979737122
  0
ELLIPSE
  5
40BF
330
18
100
AcDbEntity
  8
A-BACKING
100
AcDbEllipse
 10
1618.448629733243
 20
1014.441349740141
 30
0.0
 11
-0.1767766952961826
 21
0.0
 31
0.0
210
0.0
220
0.0
230
1.0
 40
0.5773502691902205
 41
5.497787143782336
 42
8.63937979737122
  0
ELLIPSE
  5
40C0
330
18
100
AcDbEntity
  8
A-BACKING
100
AcDbEllipse
 10
1618.698629733243
 20
1014.297012172843
 30
0.0
 11
-0.1767766952961826
 21
0.0
 31
0.0
210
0.0
220
0.0
230
1.0
 40
0.5773502691902205
 41
5.497787143782336
 42
8.63937979737122
  0
ELLIPSE
  5
40C1
330
18
100
AcDbEntity
  8
A-BACKING
100
AcDbEllipse
 10
1618.948629733243
 20
1014.152674605546
 30
0.0
 11
-0.1767766952961826
 21
0.0
 31
0.0
210
0.0
220
0.0
230
1.0
 40
0.5773502691902205
 41
5.497787143782336
 42
8.63937979737122
  0
ELLIPSE
  5
40C2
330
18
100
AcDbEntity
  8
A-BACKING
100
AcDbEllipse
 10
1619.198629733245
 20
1014.00833703825
 30
0.0
 11
-0.1767766952961826
 21
0.0
 31
0.0
210
0.0
220
0.0
230
1.0
 40
0.5773502691902205
 41
5.497787143782336
 42
8.63937979737122
  0
ELLIPSE
  5
40C3
330
18
100
AcDbEntity
  8
A-BACKING
100
AcDbEllipse
 10
1619.448629733244
 20
1013.863999470952
 30
0.0
 11
-0.1767766952961826
 21
0.0
 31
0.0
210
0.0
220
0.0
230
1.0
 40
0.5773502691902205
 41
5.497787143782336
 42
8.63937979737122
  0
ELLIPSE
  5
40C4
330
18
100
AcDbEntity
  8
A-BACKING
100
AcDbEllipse
 10
1619.698629733244
 20
1013.719661903655
 30
0.0
 11
-0.1767766952961826
 21
0.0
 31
0.0
210
0.0
220
0.0
230
1.0
 40
0.5773502691902205
 41
5.497787143782336
 42
8.63937979737122
  0
ELLIPSE
  5
40C7
330
18
100
AcDbEntity
  8
A-BACKING
100
AcDbEllipse
 10
1625.698629733234
 20
1010.255560288522
 30
0.0
 11
0.1799437858342869
 21
0.01741113329251027
 31
0.0
210
0.0
220
0.0
230
0.9999999999999999
 40
0.6103355892412011
 41
2.278080404379407
 42
3.384221454489139
  0
LINE
  5
40C8
330
18
100
AcDbEntity
  8
A-BACKING
 62
     5
100
AcDbLine
 10
1624.77131998393
 20
1010.687994698296
 30
0.0
 11
1624.77131998393
 21
1002.741668170405
 31
0.0
  0
LINE
  5
40C9
330
18
100
AcDbEntity
  8
A-BACKING
 62
     5
100
AcDbLine
 10
1625.021319983926
 20
1010.543657130997
 30
0.0
 11
1625.021319983926
 21
1001.68444248527
 31
0.0
  0
LINE
  5
40CA
330
18
100
AcDbEntity
  8
A-BACKING
 62
     5
100
AcDbLine
 10
1625.271319983923
 20
1010.399319563698
 30
0.0
 11
1625.271319983923
 21
1000.627216800129
 31
0.0
  0
LINE
  5
40CB
330
18
100
AcDbEntity
  8
A-BACKING
 62
     5
100
AcDbLine
 10
1625.521319983922
 20
1010.224902065787
 30
0.0
 11
1625.521319983922
 21
1001.456658004481
 31
0.0
  0
LINE
  5
40D0
330
18
100
AcDbEntity
  8
A-BACKING
 62
     5
100
AcDbLine
 10
1625.52131998392
 20
1010.224902065797
 30
0.0
 11
1625.521319983919
 21
999.5699911149926
 31
0.0
  0
LINE
  5
40D1
330
18
100
AcDbEntity
  8
A-BACKING
 62
     5
100
AcDbLine
 10
1625.771319983917
 20
1009.238855115201
 30
0.0
 11
1625.771319983917
 21
998.7080313010425
 31
0.0
  0
LINE
  5
40D2
330
18
100
AcDbEntity
  8
A-BACKING
 62
     5
100
AcDbLine
 10
1626.021319983916
 20
1008.244802179404
 30
0.0
 11
1626.021319983916
 21
998.2805070741439
 31
0.0
  0
MTEXT
  5
40DD
330
18
100
AcDbEntity
  8
A-NOTE
100
AcDbMText
 10
1633.15601015319
 20
989.6350678304626
 30
0.0
 40
0.374625
 41
8.469024364515843
 71
     1
 72
     5
  1
\A1;{\LAVAILABLE IN TWO SIZES}
  7
ROMANS
  0
MTEXT
  5
40DE
330
18
100
AcDbEntity
  8
A-NOTE
100
AcDbMText
 10
1617.889416612265
 20
997.5570419243895
 30
0.0
 40
0.5
 41
6.375413353752606
 71
     1
 72
     5
  1
OPTIONAL WEEP SYSTEM (PVC)
  7
ROMANS
  0
MTEXT
  5
40DF
330
18
100
AcDbEntity
  8
A-NOTE
100
AcDbMText
 10
1617.891228832366
 20
995.4282714165912
 30
0.0
 40
0.5
 41
8.67542922043856
 71
     1
 72
     5
  1
MOISTURE RESISTANCE BARRIER
  7
ROMANS
  0
MTEXT
  5
40E0
330
18
100
AcDbEntity
  8
A-NOTE
100
AcDbMText
 10
1617.890868098751
 20
993.213727764054
 30
0.0
 40
0.5
 41
9.69620856264794
 71
     1
 72
     5
  1
SHEATHING, CONCRETE, \POR OTHER SURFACE
  7
ROMANS
  0
MTEXT
  5
40E1
330
18
100
AcDbEntity
  8
A-NOTE
100
AcDbMText
 10
1609.68276907745
 20
1000.636899137932
 30
0.0
 40
0.5
 41
6.426505207436207
 71
     1
 72
     5
  1
PATENTED METAL GRID PANEL
  7
ROMANS
  0
MTEXT
  5
40E2
330
18
100
AcDbEntity
  8
A-NOTE
100
AcDbMText
 10
1623.303419764989
 20
1019.129472104415
 30
0.0
 40
0.5
 41
11.79474981186092
 71
     1
 72
     5
  1
3/8" BEAD ADHESIVE TO PROVIDE \PA MECHANICAL ATTACHMENT BETWEEN BRICK, GRID AND SUBSTRATE.
  7
ROMANS
  0
MTEXT
  5
40E3
330
18
100
AcDbEntity
  8
A-NOTE
100
AcDbMText
 10
1627.00314935535
 20
1015.621011721066
 30
0.0
 40
0.5
 41
10.19766492202746
 71
     1
 72
     5
  1
INTERLOCKING EDGES AT BRICK SHELF SUPPORT FOR LEVEL AND STRAIGHT HORIZONTAL LINES.
  7
ROMANS
  0
MTEXT
  5
40E4
330
18
100
AcDbEntity
  8
A-NOTE
100
AcDbMText
 10
1609.684964314543
 20
1003.149176568071
 30
0.0
 40
0.5
 41
6.468284630297376
 71
     1
 72
     5
  1
\A1;1/2" THICK REAL BRICK
  7
ROMANS
  0
MTEXT
  5
40E5
330
18
100
AcDbEntity
  8
A-NOTE
100
AcDbMText
 10
1633.184880077446
 20
988.9609208876385
 30
0.0
 40
0.374625
 41
8.469024364515843
 71
     1
 72
     5
  1
\A1;48"(W) x 8-1/4"(H) \P96"(W) X 8 1/4"(H)
  7
ROMANS
  0
MTEXT
  5
40E6
330
18
100
AcDbEntity
  8
A-NOTE
100
AcDbMText
 10
1619.589457672145
 20
1021.794389825405
 30
0.0
 40
0.5
 41
10.11368756531795
 71
     1
 72
     5
  1
MORTAR ANCHORING SLOT TO ENSURE BONDING TO THE GRID.
  7
ROMANS
  0
MTEXT
  5
40E7
330
18
100
AcDbEntity
  8
A-NOTE
 62
     1
100
AcDbMText
 10
1628.059569116218
 20
990.6577030724908
 30
0.0
 40
0.4370624999999999
 41
10.99669370770967
 71
     1
 72
     5
  1
BRICK-IT  DESIGNER METAL GRID PANEL
  7
ROMANS
  0
MTEXT
  5
40E8
330
18
100
AcDbEntity
  8
A-NOTE
100
AcDbMText
 10
1630.426438599216
 20
990.6577608577905
 30
0.0
 40
0.24975
 41
0.6485325219781655
 71
     1
 72
     5
  1
TM
  7
ROMANS
  0
ELLIPSE
  5
411E
330
18
100
AcDbEntity
  8
A-NOTE
100
AcDbEllipse
 10
1624.812056593643
 20
1001.795046167735
 30
0.0
 11
0.0
 21
0.3301777059272126
 31
0.0
210
0.0
220
0.0
230
1.0
 40
0.8701198562348111
 41
0.0
 42
6.283185307179586
  0
LINE
  5
458D
330
18
100
AcDbEntity
  8
A-MTL_GRID
100
AcDbLine
 10
1616.216243175327
 20
1012.310032459417
 30
0.0
 11
1623.125862509371
 21
1008.320761876909
 31
0.0
  0
LINE
  5
4590
330
18
100
AcDbEntity
  8
A-BRICK
100
AcDbLine
 10
1612.134885645069
 20
1014.37975402175
 30
0.0
 11
1613.337971821972
 21
1013.685151893657
 31
0.0
  0
LINE
  5
4591
330
18
100
AcDbEntity
  8
A-BRICK
100
AcDbLine
 10
1613.337971821972
 20
1013.685151893657
 30
0.0
 11
1613.337971821972
 21
1013.685151893657
 31
0.0
  0
LINE
  5
4592
330
18
100
AcDbEntity
  8
A-BRICK
100
AcDbLine
 10
1613.337971821972
 20
1013.685151893657
 30
0.0
 11
1612.904959120079
 21
1013.435151893657
 31
0.0
  0
LINE
  5
4593
330
18
100
AcDbEntity
  8
A-BRICK
100
AcDbLine
 10
1612.90495912008
 20
1013.435151893657
 30
0.0
 11
1612.90495912008
 21
1011.185151893657
 31
0.0
  0
LINE
  5
4594
330
18
100
AcDbEntity
  8
A-BRICK
100
AcDbLine
 10
1612.90495912008
 20
1011.185151893657
 30
0.0
 11
1613.121465471026
 21
1011.310151893657
 31
0.0
  0
LINE
  5
45AA
330
18
100
AcDbEntity
  8
A-BRICK
100
AcDbLine
 10
1613.554478172918
 20
1013.560151893657
 30
0.0
 11
1613.121465471025
 21
1013.310151893657
 31
0.0
  0
LINE
  5
45AB
330
18
100
AcDbEntity
  8
A-BRICK
100
AcDbLine
 10
1613.121465471026
 20
1013.310151893657
 30
0.0
 11
1613.121465471026
 21
1011.060151893657
 31
0.0
  0
LINE
  5
45B4
330
18
100
AcDbEntity
  8
A-BRICK
100
AcDbLine
 10
1616.314934147481
 20
1008.591401893657
 30
0.0
 11
1609.711490443625
 21
1012.403901893657
 31
0.0
  0
LINE
  5
45B5
330
18
100
AcDbEntity
  8
A-BRICK
100
AcDbLine
 10
1616.747946849373
 20
1008.841401893657
 30
0.0
 11
1610.144503145517
 21
1012.653901893657
 31
0.0
  0
LINE
  5
45B6
330
18
100
AcDbEntity
  8
A-BRICK
100
AcDbLine
 10
1616.31493414748
 20
1006.341401893657
 30
0.0
 11
1609.711490443624
 21
1010.153901893657
 31
0.0
  0
LINE
  5
45B7
330
18
100
AcDbEntity
  8
A-BRICK
100
AcDbLine
 10
1610.144503145517
 20
1012.653901893657
 30
0.0
 11
1609.711490443624
 21
1012.403901893657
 31
0.0
  0
LINE
  5
45B8
330
18
100
AcDbEntity
  8
A-BRICK
100
AcDbLine
 10
1609.711490443624
 20
1012.403901893657
 30
0.0
 11
1609.711490443624
 21
1010.153901893657
 31
0.0
  0
LINE
  5
45B9
330
18
100
AcDbEntity
  8
A-BRICK
100
AcDbLine
 10
1616.747946849373
 20
1008.591401893657
 30
0.0
 11
1616.747946849373
 21
1008.841401893657
 31
0.0
  0
LINE
  5
45BA
330
18
100
AcDbEntity
  8
A-BRICK
100
AcDbLine
 10
1616.747946849373
 20
1008.841401893657
 30
0.0
 11
1616.314934147481
 21
1008.591401893657
 31
0.0
  0
LINE
  5
45BB
330
18
100
AcDbEntity
  8
A-BRICK
100
AcDbLine
 10
1616.314934147481
 20
1008.591401893657
 30
0.0
 11
1616.314934147481
 21
1006.341401893657
 31
0.0
  0
LINE
  5
45BC
330
18
100
AcDbEntity
  8
A-BRICK
100
AcDbLine
 10
1616.314934147481
 20
1006.341401893657
 30
0.0
 11
1616.531440498427
 21
1006.466401893657
 31
0.0
  0
LINE
  5
45BD
330
18
100
AcDbEntity
  8
A-BRICK
100
AcDbLine
 10
1613.337971821972
 20
1007.935151893657
 30
0.0
 11
1612.904959120079
 21
1007.685151893657
 31
0.0
  0
LINE
  5
45BE
330
18
100
AcDbEntity
  8
A-BRICK
100
AcDbLine
 10
1612.90495912008
 20
1007.685151893657
 30
0.0
 11
1612.90495912008
 21
1005.435151893657
 31
0.0
  0
LINE
  5
45BF
330
18
100
AcDbEntity
  8
A-BRICK
100
AcDbLine
 10
1612.90495912008
 20
1005.435151893657
 30
0.0
 11
1613.121465471026
 21
1005.560151893657
 31
0.0
  0
LINE
  5
45C0
330
18
100
AcDbEntity
  8
A-BRICK
100
AcDbLine
 10
1612.904959120079
 20
1007.685151893657
 30
0.0
 11
1609.711490443625
 21
1009.528901893657
 31
0.0
  0
LINE
  5
45C1
330
18
100
AcDbEntity
  8
A-BRICK
100
AcDbLine
 10
1613.337971821972
 20
1007.935151893657
 30
0.0
 11
1610.144503145517
 21
1009.778901893657
 31
0.0
  0
LINE
  5
45C2
330
18
100
AcDbEntity
  8
A-BRICK
100
AcDbLine
 10
1612.90495912008
 20
1005.435151893657
 30
0.0
 11
1609.711490443624
 21
1007.278901893657
 31
0.0
  0
LINE
  5
45C3
330
18
100
AcDbEntity
  8
A-BRICK
100
AcDbLine
 10
1610.144503145517
 20
1009.778901893657
 30
0.0
 11
1609.711490443625
 21
1009.528901893657
 31
0.0
  0
LINE
  5
45C4
330
18
100
AcDbEntity
  8
A-BRICK
100
AcDbLine
 10
1609.711490443624
 20
1009.528901893657
 30
0.0
 11
1609.711490443624
 21
1007.278901893657
 31
0.0
  0
LINE
  5
45C7
330
18
100
AcDbEntity
  8
A-BRICK
100
AcDbLine
 10
1613.121465471026
 20
1007.560151893657
 30
0.0
 11
1613.121465471026
 21
1005.310151893657
 31
0.0
  0
LINE
  5
45C8
330
18
100
AcDbEntity
  8
A-BRICK
100
AcDbLine
 10
1613.121465471026
 20
1005.310151893657
 30
0.0
 11
1618.438258091783
 21
1002.240500242837
 31
0.0
  0
LINE
  5
45C9
330
18
100
AcDbEntity
  8
A-BRICK
100
AcDbLine
 10
1613.121465471026
 20
1007.560151893657
 30
0.0
 11
1617.82208181673
 21
1004.846249781107
 31
0.0
  0
LINE
  5
45CA
330
18
100
AcDbEntity
  8
A-BRICK
100
AcDbLine
 10
1613.554478172918
 20
1007.810151893657
 30
0.0
 11
1613.121465471025
 21
1007.560151893657
 31
0.0
  0
LINE
  5
45CB
330
18
100
AcDbEntity
  8
A-BRICK
100
AcDbLine
 10
1613.554478172918
 20
1013.560151893657
 30
0.0
 11
1616.680421815708
 21
1011.755387490021
 31
0.0
  0
LINE
  5
45CC
330
18
100
AcDbEntity
  8
A-BRICK
100
AcDbLine
 10
1613.121465471026
 20
1013.310151893657
 30
0.0
 11
1616.247409113816
 21
1011.505387490021
 31
0.0
  0
LINE
  5
45CD
330
18
100
AcDbEntity
  8
A-BRICK
100
AcDbLine
 10
1613.121465471026
 20
1011.060151893657
 30
0.0
 11
1616.863585388869
 21
1008.899637951751
 31
0.0
  0
LINE
  5
45CE
330
18
100
AcDbEntity
  8
A-BRICK
100
AcDbLine
 10
1618.438258091783
 20
1002.240500242837
 30
0.0
 11
1617.82208181673
 21
1004.846249781107
 31
0.0
  0
LINE
  5
45CF
330
18
100
AcDbEntity
  8
A-BRICK
100
AcDbLine
 10
1616.076249037412
 20
1012.229206806207
 30
0.0
 11
1615.460072762359
 21
1014.834956344476
 31
0.0
  0
LINE
  5
45D5
330
18
100
AcDbEntity
  8
A-BRICK
100
AcDbLine
 10
1615.460072762359
 20
1014.834956344477
 30
0.0
 11
1615.893085464251
 21
1015.084956344477
 31
0.0
  0
LINE
  5
45D6
330
18
100
AcDbEntity
  8
A-BRICK
100
AcDbLine
 10
1616.076249037412
 20
1012.229206806207
 30
0.0
 11
1616.509261739305
 21
1012.479206806207
 31
0.0
  0
LINE
  5
45D7
330
18
100
AcDbEntity
  8
A-BRICK
100
AcDbLine
 10
1616.509261739305
 20
1012.479206806207
 30
0.0
 11
1615.893085464252
 21
1015.084956344477
 31
0.0
  0
ELLIPSE
  5
45D8
330
18
100
AcDbEntity
  8
A-MTL_GRID
100
AcDbEllipse
 10
1616.075059378831
 20
1014.487272901883
 30
0.0
 11
0.1148198316930119
 21
-0.1988737822086873
 31
0.0
210
0.0
220
0.0
230
0.9999999999999998
 40
0.5773502691899645
 41
5.524047215835878
 42
9.225663637782093
  0
ELLIPSE
  5
45D9
330
18
100
AcDbEntity
  8
A-MTL_GRID
 62
     5
100
AcDbEllipse
 10
1616.12918596654
 20
1014.518522901898
 30
0.0
 11
0.1148198316930119
 21
-0.1988737822086873
 31
0.0
210
0.0
220
0.0
230
1.0
 40
0.5773502691899645
 41
3.379533778613869
 42
3.430456036426754
  0
ELLIPSE
  5
45DA
330
18
100
AcDbEntity
  8
A-MTL_GRID
100
AcDbEllipse
 10
1616.616325256197
 20
1014.174772901883
 30
0.0
 11
0.1148198316930119
 21
-0.1988737822086873
 31
0.0
210
0.0
220
0.0
230
1.0
 40
0.5773502691899645
 41
0.0
 42
6.283185307179586
  0
ELLIPSE
  5
45DB
330
18
100
AcDbEntity
  8
A-MTL_GRID
 62
     5
100
AcDbEllipse
 10
1616.670451843905
 20
1014.206022901898
 30
0.0
 11
0.1148198316930119
 21
-0.1988737822086873
 31
0.0
210
0.0
220
0.0
230
1.0
 40
0.5773502691899645
 41
3.379533778613869
 42
6.04524418266957
  0
ELLIPSE
  5
45DC
330
18
100
AcDbEntity
  8
A-MTL_GRID
 62
     5
100
AcDbEllipse
 10
1616.12918596654
 20
1014.518522901898
 30
0.0
 11
0.1148198316930119
 21
-0.1988737822086873
 31
0.0
210
0.0
220
0.0
230
1.0
 40
0.5773502691899645
 41
5.036069510012162
 42
6.04524418266957
  0
LINE
  5
45F2
330
18
100
AcDbEntity
  8
A-BRICK
100
AcDbLine
 10
1616.247409113816
 20
1011.505387490021
 30
0.0
 11
1616.680421815708
 21
1011.755387490021
 31
0.0
  0
LINE
  5
45F3
330
18
100
AcDbEntity
  8
A-BRICK
100
AcDbLine
 10
1617.296598090761
 20
1009.149637951751
 30
0.0
 11
1616.680421815708
 21
1011.755387490021
 31
0.0
  0
LINE
  5
45F4
330
18
100
AcDbEntity
  8
A-BRICK
100
AcDbLine
 10
1616.863585388869
 20
1008.899637951751
 30
0.0
 11
1617.296598090761
 21
1009.149637951751
 31
0.0
  0
LINE
  5
45F5
330
18
100
AcDbEntity
  8
A-BRICK
100
AcDbLine
 10
1616.531440498427
 20
1008.466401893657
 30
0.0
 11
1616.531440498427
 21
1006.216401893657
 31
0.0
  0
LINE
  5
45F6
330
18
100
AcDbEntity
  8
A-BRICK
100
AcDbLine
 10
1616.531440498427
 20
1008.466401893657
 30
0.0
 11
1617.034745465272
 21
1008.175818635564
 31
0.0
  0
LINE
  5
45F7
330
18
100
AcDbEntity
  8
A-BRICK
100
AcDbLine
 10
1616.531440498427
 20
1006.216401893657
 30
0.0
 11
1617.650921740325
 21
1005.570069097294
 31
0.0
  0
LINE
  5
45F8
330
18
100
AcDbEntity
  8
A-BRICK
100
AcDbLine
 10
1618.083934442218
 20
1005.820069097294
 30
0.0
 11
1617.467758167164
 21
1008.425818635564
 31
0.0
  0
LINE
  5
45F9
330
18
100
AcDbEntity
  8
A-BRICK
100
AcDbLine
 10
1616.964453200319
 20
1008.716401893657
 30
0.0
 11
1617.467758167164
 21
1008.425818635564
 31
0.0
  0
LINE
  5
45FA
330
18
100
AcDbEntity
  8
A-BRICK
100
AcDbLine
 10
1616.531440498427
 20
1008.466401893657
 30
0.0
 11
1616.964453200319
 21
1008.716401893657
 31
0.0
  0
LINE
  5
45FB
330
18
100
AcDbEntity
  8
A-BRICK
100
AcDbLine
 10
1617.467758167164
 20
1008.425818635564
 30
0.0
 11
1617.034745465272
 21
1008.175818635564
 31
0.0
  0
LINE
  5
45FC
330
18
100
AcDbEntity
  8
A-BRICK
100
AcDbLine
 10
1618.083934442218
 20
1005.820069097294
 30
0.0
 11
1617.650921740325
 21
1005.570069097294
 31
0.0
  0
ELLIPSE
  5
45FD
330
18
100
AcDbEntity
  8
A-MTL_GRID
 62
     5
100
AcDbEllipse
 10
1617.752983598636
 20
1007.706022901898
 30
0.0
 11
0.1148198316930119
 21
-0.1988737822086873
 31
0.0
210
0.0
220
0.0
230
1.0
 40
0.5773502691899645
 41
4.905967826465843
 42
6.04524418266957
  0
LINE
  5
4613
330
18
100
AcDbEntity
  8
A-BRICK
100
AcDbLine
 10
1616.863585388869
 20
1008.899637951751
 30
0.0
 11
1616.247409113816
 21
1011.505387490021
 31
0.0
  0
LINE
  5
4614
330
18
100
AcDbEntity
  8
A-BRICK
100
AcDbLine
 10
1617.650921740326
 20
1005.570069097294
 30
0.0
 11
1617.034745465272
 21
1008.175818635564
 31
0.0
  0
LINE
  5
4615
330
18
100
AcDbEntity
  8
A-BRICK
100
AcDbLine
 10
1617.82208181673
 20
1004.846249781107
 30
0.0
 11
1618.255094518622
 21
1005.096249781107
 31
0.0
  0
LINE
  5
4616
330
18
100
AcDbEntity
  8
A-BRICK
100
AcDbLine
 10
1618.871270793675
 20
1002.490500242837
 30
0.0
 11
1618.255094518622
 21
1005.096249781108
 31
0.0
  0
LINE
  5
4617
330
18
100
AcDbEntity
  8
A-BRICK
100
AcDbLine
 10
1618.871270793675
 20
1002.490500242837
 30
0.0
 11
1618.438258091783
 21
1002.240500242837
 31
0.0
  0
ELLIPSE
  5
461C
330
18
100
AcDbEntity
  8
A-MTL_GRID
100
AcDbEllipse
 10
1619.052021704341
 20
1004.018522901883
 30
0.0
 11
0.1148198316930119
 21
-0.1988737822086873
 31
0.0
210
0.0
220
0.0
230
1.0
 40
0.5773502691899645
 41
0.0
 42
6.283185307179586
  0
ELLIPSE
  5
461D
330
18
100
AcDbEntity
  8
A-MTL_GRID
 62
     5
100
AcDbEllipse
 10
1619.106148292049
 20
1004.049772901899
 30
0.0
 11
0.1148198316930119
 21
-0.1988737822086873
 31
0.0
210
0.0
220
0.0
230
1.0
 40
0.5773502691899645
 41
3.379533778613869
 42
6.04524418266957
  0
ELLIPSE
  5
461E
330
18
100
AcDbEntity
  8
A-MTL_GRID
100
AcDbEllipse
 10
1618.510755826975
 20
1004.331022901883
 30
0.0
 11
0.1148198316930119
 21
-0.1988737822086873
 31
0.0
210
0.0
220
0.0
230
1.0
 40
0.5773502691899645
 41
5.271149264493245
 42
9.478561589125201
  0
ELLIPSE
  5
461F
330
18
100
AcDbEntity
  8
A-MTL_GRID
 62
     5
100
AcDbEllipse
 10
1618.564882414684
 20
1004.362272901899
 30
0.0
 11
0.1148198316930119
 21
-0.1988737822086873
 31
0.0
210
0.0
220
0.0
230
1.0
 40
0.5773502691899645
 41
3.379533778613869
 42
3.847111088015496
  0
ELLIPSE
  5
4620
330
18
100
AcDbEntity
  8
A-MTL_GRID
 62
     5
100
AcDbEllipse
 10
1618.564882414684
 20
1004.362272901899
 30
0.0
 11
0.1148198316930119
 21
-0.1988737822086873
 31
0.0
210
0.0
220
0.0
230
1.0
 40
0.5773502691899645
 41
4.619414458423664
 42
6.04524418266957
  0
LINE
  5
4636
330
18
100
AcDbEntity
  8
A-BRICK
100
AcDbLine
 10
1613.337971821972
 20
1013.685151893657
 30
0.0
 11
1613.337971821972
 21
1013.435151893657
 31
0.0
  0
LINE
  5
4637
330
18
100
AcDbEntity
  8
A-BRICK
100
AcDbLine
 10
1613.337971821972
 20
1007.935151893657
 30
0.0
 11
1613.337971821972
 21
1007.685151893657
 31
0.0
  0
HATCH
  5
4668
330
18
100
AcDbEntity
  8
A-HATCH
100
AcDbHatch
 10
0.0
 20
0.0
 30
0.0
210
0.0
220
0.0
230
1.0
  2
AR-SAND
 70
     0
 71
     0
 91
        4
 92
        1
 93
        6
 72
     1
 10
1610.144503145517
 20
1018.403901893657
 11
1615.893085464252
 21
1015.084956344477
 72
     1
 10
1615.893085464252
 20
1015.084956344477
 11
1616.509261739305
 21
1012.479206806207
 72
     1
 10
1616.509261739305
 20
1012.479206806207
 11
1616.076249037412
 21
1012.229206806207
 72
     1
 10
1616.076249037412
 20
1012.229206806207
 11
1609.711490443624
 21
1015.903901893657
 72
     1
 10
1609.711490443624
 20
1015.903901893657
 11
1609.711490443624
 21
1018.153901893657
 72
     1
 10
1609.711490443624
 20
1018.153901893657
 11
1610.144503145517
 21
1018.403901893657
 97
        0
 92
        1
 93
       12
 72
     1
 10
1609.711490443624
 20
1015.278901893657
 11
1610.144503145517
 21
1015.528901893657
 72
     1
 10
1610.144503145517
 20
1015.528901893657
 11
1613.337971821972
 21
1013.685151893657
 72
     1
 10
1613.337971821972
 20
1013.685151893657
 11
1613.337971821972
 21
1013.435151893657
 72
     1
 10
1613.337971821972
 20
1013.435151893657
 11
1613.554478172918
 21
1013.560151893657
 72
     1
 10
1613.554478172918
 20
1013.560151893657
 11
1616.680421815708
 21
1011.755387490021
 72
     1
 10
1616.680421815708
 20
1011.755387490021
 11
1617.296598090761
 21
1009.149637951751
 72
     1
 10
1617.296598090761
 20
1009.149637951751
 11
1616.863585388869
 21
1008.899637951751
 72
     1
 10
1616.863585388869
 20
1008.899637951751
 11
1613.121465471026
 21
1011.060151893657
 72
     1
 10
1613.121465471026
 20
1011.060151893657
 11
1613.121465471026
 21
1011.310151893657
 72
     1
 10
1613.121465471026
 20
1011.310151893657
 11
1612.90495912008
 21
1011.185151893657
 72
     1
 10
1612.90495912008
 20
1011.185151893657
 11
1609.711490443624
 21
1013.028901893657
 72
     1
 10
1609.711490443624
 20
1013.028901893657
 11
1609.711490443624
 21
1015.278901893657
 97
        0
 92
        1
 93
       12
 72
     1
 10
1609.711490443624
 20
1012.403901893657
 11
1610.144503145517
 21
1012.653901893657
 72
     1
 10
1610.144503145517
 20
1012.653901893657
 11
1616.747946849373
 21
1008.841401893657
 72
     1
 10
1616.747946849373
 20
1008.841401893657
 11
1616.747946849373
 21
1008.591401893657
 72
     1
 10
1616.747946849373
 20
1008.591401893657
 11
1616.964453200319
 21
1008.716401893657
 72
     1
 10
1616.964453200319
 20
1008.716401893657
 11
1617.467758167164
 21
1008.425818635564
 72
     1
 10
1617.467758167164
 20
1008.425818635564
 11
1618.083934442218
 21
1005.820069097295
 72
     1
 10
1618.083934442218
 20
1005.820069097295
 11
1617.650921740326
 21
1005.570069097294
 72
     1
 10
1617.650921740326
 20
1005.570069097294
 11
1616.531440498427
 21
1006.216401893657
 72
     1
 10
1616.531440498427
 20
1006.216401893657
 11
1616.531440498427
 21
1006.466401893657
 72
     1
 10
1616.531440498427
 20
1006.466401893657
 11
1616.314934147481
 21
1006.341401893657
 72
     1
 10
1616.314934147481
 20
1006.341401893657
 11
1609.711490443624
 21
1010.153901893657
 72
     1
 10
1609.711490443624
 20
1010.153901893657
 11
1609.711490443624
 21
1012.403901893657
 97
        0
 92
        1
 93
       12
 72
     1
 10
1609.711490443624
 20
1009.528901893657
 11
1610.144503145517
 21
1009.778901893657
 72
     1
 10
1610.144503145517
 20
1009.778901893657
 11
1613.337971821972
 21
1007.935151893657
 72
     1
 10
1613.337971821972
 20
1007.935151893657
 11
1613.337971821972
 21
1007.685151893657
 72
     1
 10
1613.337971821972
 20
1007.685151893657
 11
1613.554478172918
 21
1007.810151893657
 72
     1
 10
1613.554478172918
 20
1007.810151893657
 11
1618.255094518622
 21
1005.096249781107
 72
     1
 10
1618.255094518622
 20
1005.096249781107
 11
1618.871270793675
 21
1002.490500242837
 72
     1
 10
1618.871270793675
 20
1002.490500242837
 11
1618.438258091783
 21
1002.240500242837
 72
     1
 10
1618.438258091783
 20
1002.240500242837
 11
1613.121465471026
 21
1005.310151893657
 72
     1
 10
1613.121465471026
 20
1005.310151893657
 11
1613.121465471026
 21
1005.560151893657
 72
     1
 10
1613.121465471026
 20
1005.560151893657
 11
1612.90495912008
 21
1005.435151893657
 72
     1
 10
1612.90495912008
 20
1005.435151893657
 11
1609.711490443624
 21
1007.278901893657
 72
     1
 10
1609.711490443624
 20
1007.278901893657
 11
1609.711490443624
 21
1009.528901893657
 97
        0
 75
     0
 76
     1
 52
0.0
 41
0.25
 77
     0
 78
     4
 53
37.5
 43
1609.711490443624
 44
1002.240500242837
 45
-0.015748339527402
 46
0.4817059422532897
 79
     6
 49
0.0
 49
-0.38
 49
0.0
 49
-0.425
 49
0.0
 49
-0.40625
 53
7.499999999999999
 43
1609.711490443624
 44
1002.240500242837
 45
0.4424441763169318
 46
0.7055365163074351
 79
     6
 49
0.0
 49
-0.205
 49
0.0
 49
-0.3425
 49
0.0
 49
-0.13125
 53
327.5
 43
1609.403990443624
 44
1002.240500242837
 45
0.7785354654378738
 46
0.0014147633842411
 79
     6
 49
0.0
 49
-0.125
 49
0.0
 49
-0.45
 49
0.0
 49
-0.5875
 53
317.5
 43
1609.403990443624
 44
1002.240500242837
 45
0.7515316511430733
 46
0.2194188912335623
 79
     6
 49
0.0
 49
-0.0625
 49
0.0
 49
-0.295
 49
0.0
 49
-0.3375
 98
        1
 10
0.0
 20
0.0
1001
ACAD
1010
1547.266833250877
1020
1040.413497926668
1030
0.0
  0
HATCH
  5
4669
330
18
100
AcDbEntity
  8
A-HATCH8
100
AcDbHatch
 10
0.0
 20
0.0
 30
0.0
210
0.0
220
0.0
230
1.0
  2
SOLID
 70
     1
 71
     0
 91
        4
 92
        1
 93
        6
 72
     1
 10
1610.144503145517
 20
1018.403901893657
 11
1615.893085464252
 21
1015.084956344477
 72
     1
 10
1615.893085464252
 20
1015.084956344477
 11
1616.509261739305
 21
1012.479206806207
 72
     1
 10
1616.509261739305
 20
1012.479206806207
 11
1616.076249037412
 21
1012.229206806207
 72
     1
 10
1616.076249037412
 20
1012.229206806207
 11
1609.711490443624
 21
1015.903901893657
 72
     1
 10
1609.711490443624
 20
1015.903901893657
 11
1609.711490443624
 21
1018.153901893657
 72
     1
 10
1609.711490443624
 20
1018.153901893657
 11
1610.144503145517
 21
1018.403901893657
 97
        0
 92
        1
 93
       12
 72
     1
 10
1609.711490443624
 20
1015.278901893657
 11
1610.144503145517
 21
1015.528901893657
 72
     1
 10
1610.144503145517
 20
1015.528901893657
 11
1613.337971821972
 21
1013.685151893657
 72
     1
 10
1613.337971821972
 20
1013.685151893657
 11
1613.337971821972
 21
1013.435151893657
 72
     1
 10
1613.337971821972
 20
1013.435151893657
 11
1613.554478172918
 21
1013.560151893657
 72
     1
 10
1613.554478172918
 20
1013.560151893657
 11
1616.680421815708
 21
1011.755387490021
 72
     1
 10
1616.680421815708
 20
1011.755387490021
 11
1617.296598090761
 21
1009.149637951751
 72
     1
 10
1617.296598090761
 20
1009.149637951751
 11
1616.863585388869
 21
1008.899637951751
 72
     1
 10
1616.863585388869
 20
1008.899637951751
 11
1613.121465471026
 21
1011.060151893657
 72
     1
 10
1613.121465471026
 20
1011.060151893657
 11
1613.121465471026
 21
1011.310151893657
 72
     1
 10
1613.121465471026
 20
1011.310151893657
 11
1612.90495912008
 21
1011.185151893657
 72
     1
 10
1612.90495912008
 20
1011.185151893657
 11
1609.711490443624
 21
1013.028901893657
 72
     1
 10
1609.711490443624
 20
1013.028901893657
 11
1609.711490443624
 21
1015.278901893657
 97
        0
 92
        1
 93
       12
 72
     1
 10
1609.711490443624
 20
1012.403901893657
 11
1610.144503145517
 21
1012.653901893657
 72
     1
 10
1610.144503145517
 20
1012.653901893657
 11
1616.747946849373
 21
1008.841401893657
 72
     1
 10
1616.747946849373
 20
1008.841401893657
 11
1616.747946849373
 21
1008.591401893657
 72
     1
 10
1616.747946849373
 20
1008.591401893657
 11
1616.964453200319
 21
1008.716401893657
 72
     1
 10
1616.964453200319
 20
1008.716401893657
 11
1617.467758167164
 21
1008.425818635564
 72
     1
 10
1617.467758167164
 20
1008.425818635564
 11
1618.083934442218
 21
1005.820069097295
 72
     1
 10
1618.083934442218
 20
1005.820069097295
 11
1617.650921740326
 21
1005.570069097294
 72
     1
 10
1617.650921740326
 20
1005.570069097294
 11
1616.531440498427
 21
1006.216401893657
 72
     1
 10
1616.531440498427
 20
1006.216401893657
 11
1616.531440498427
 21
1006.466401893657
 72
     1
 10
1616.531440498427
 20
1006.466401893657
 11
1616.314934147481
 21
1006.341401893657
 72
     1
 10
1616.314934147481
 20
1006.341401893657
 11
1609.711490443624
 21
1010.153901893657
 72
     1
 10
1609.711490443624
 20
1010.153901893657
 11
1609.711490443624
 21
1012.403901893657
 97
        0
 92
        1
 93
       12
 72
     1
 10
1609.711490443624
 20
1009.528901893657
 11
1610.144503145517
 21
1009.778901893657
 72
     1
 10
1610.144503145517
 20
1009.778901893657
 11
1613.337971821972
 21
1007.935151893657
 72
     1
 10
1613.337971821972
 20
1007.935151893657
 11
1613.337971821972
 21
1007.685151893657
 72
     1
 10
1613.337971821972
 20
1007.685151893657
 11
1613.554478172918
 21
1007.810151893657
 72
     1
 10
1613.554478172918
 20
1007.810151893657
 11
1618.255094518622
 21
1005.096249781107
 72
     1
 10
1618.255094518622
 20
1005.096249781107
 11
1618.871270793675
 21
1002.490500242837
 72
     1
 10
1618.871270793675
 20
1002.490500242837
 11
1618.438258091783
 21
1002.240500242837
 72
     1
 10
1618.438258091783
 20
1002.240500242837
 11
1613.121465471026
 21
1005.310151893657
 72
     1
 10
1613.121465471026
 20
1005.310151893657
 11
1613.121465471026
 21
1005.560151893657
 72
     1
 10
1613.121465471026
 20
1005.560151893657
 11
1612.90495912008
 21
1005.435151893657
 72
     1
 10
1612.90495912008
 20
1005.435151893657
 11
1609.711490443624
 21
1007.278901893657
 72
     1
 10
1609.711490443624
 20
1007.278901893657
 11
1609.711490443624
 21
1009.528901893657
 97
        0
 75
     0
 76
     1
 98
        1
 10
0.0
 20
0.0
1001
ACAD
1010
1547.266833250877
1020
1040.413497926668
1030
0.0
  0
LINE
  5
46FB
330
18
100
AcDbEntity
  8
A-MTL_GRID
100
AcDbLine
 10
1622.541466233397
 20
1011.858912118387
 30
0.0
 11
1623.325352052663
 21
1008.543935228969
 31
0.0
  0
ELLIPSE
  5
46FC
330
18
100
AcDbEntity
  8
A-BACKING
100
AcDbEllipse
 10
1619.948629733243
 20
1013.575324336358
 30
0.0
 11
-0.1767766952961826
 21
0.0
 31
0.0
210
0.0
220
0.0
230
1.0
 40
0.5773502691902205
 41
5.497787143782336
 42
8.63937979737122
  0
ELLIPSE
  5
46FD
330
18
100
AcDbEntity
  8
A-BACKING
100
AcDbEllipse
 10
1620.198629733243
 20
1013.430986769061
 30
0.0
 11
-0.1767766952961826
 21
0.0
 31
0.0
210
0.0
220
0.0
230
1.0
 40
0.5773502691902205
 41
5.497787143782336
 42
8.63937979737122
  0
ELLIPSE
  5
46FE
330
18
100
AcDbEntity
  8
A-BACKING
100
AcDbEllipse
 10
1620.448629733243
 20
1013.286649201763
 30
0.0
 11
-0.1767766952961826
 21
0.0
 31
0.0
210
0.0
220
0.0
230
1.0
 40
0.5773502691902205
 41
5.497787143782336
 42
8.63937979737122
  0
ELLIPSE
  5
46FF
330
18
100
AcDbEntity
  8
A-BACKING
100
AcDbEllipse
 10
1620.698629733242
 20
1013.142311634466
 30
0.0
 11
-0.1767766952961826
 21
0.0
 31
0.0
210
0.0
220
0.0
230
1.0
 40
0.5773502691902205
 41
5.497787143782336
 42
8.63937979737122
  0
ELLIPSE
  5
4700
330
18
100
AcDbEntity
  8
A-BACKING
100
AcDbEllipse
 10
1620.948629733241
 20
1012.997974067169
 30
0.0
 11
-0.1767766952961826
 21
0.0
 31
0.0
210
0.0
220
0.0
230
1.0
 40
0.5773502691902205
 41
5.497787143782336
 42
8.63937979737122
  0
ELLIPSE
  5
4701
330
18
100
AcDbEntity
  8
A-BACKING
100
AcDbEllipse
 10
1621.198629733241
 20
1012.853636499872
 30
0.0
 11
-0.1767766952961826
 21
0.0
 31
0.0
210
0.0
220
0.0
230
1.0
 40
0.5773502691902205
 41
5.497787143782336
 42
8.63937979737122
  0
ELLIPSE
  5
4702
330
18
100
AcDbEntity
  8
A-BACKING
100
AcDbEllipse
 10
1621.44862973324
 20
1012.709298932574
 30
0.0
 11
-0.1767766952961826
 21
0.0
 31
0.0
210
0.0
220
0.0
230
1.0
 40
0.5773502691902205
 41
5.497787143782336
 42
8.63937979737122
  0
ELLIPSE
  5
4703
330
18
100
AcDbEntity
  8
A-BACKING
100
AcDbEllipse
 10
1621.69862973324
 20
1012.564961365277
 30
0.0
 11
-0.1767766952961826
 21
0.0
 31
0.0
210
0.0
220
0.0
230
1.0
 40
0.5773502691902205
 41
5.497787143782336
 42
8.63937979737122
  0
ELLIPSE
  5
4704
330
18
100
AcDbEntity
  8
A-BACKING
100
AcDbEllipse
 10
1621.948629733242
 20
1012.420623797981
 30
0.0
 11
-0.1767766952961826
 21
0.0
 31
0.0
210
0.0
220
0.0
230
1.0
 40
0.5773502691902205
 41
5.497787143782336
 42
8.63937979737122
  0
ELLIPSE
  5
4705
330
18
100
AcDbEntity
  8
A-BACKING
100
AcDbEllipse
 10
1622.198629733241
 20
1012.276286230684
 30
0.0
 11
-0.1767766952961826
 21
0.0
 31
0.0
210
0.0
220
0.0
230
1.0
 40
0.5773502691902205
 41
5.497787143782336
 42
8.63937979737122
  0
ELLIPSE
  5
4706
330
18
100
AcDbEntity
  8
A-BACKING
100
AcDbEllipse
 10
1622.448629733241
 20
1012.131948663387
 30
0.0
 11
-0.1767766952961826
 21
0.0
 31
0.0
210
0.0
220
0.0
230
1.0
 40
0.5773502691902205
 41
5.497787143782336
 42
8.63937979737122
  0
ELLIPSE
  5
4707
330
18
100
AcDbEntity
  8
A-BACKING
100
AcDbEllipse
 10
1622.698629733241
 20
1011.987611096089
 30
0.0
 11
-0.1767766952961826
 21
0.0
 31
0.0
210
0.0
220
0.0
230
1.0
 40
0.5773502691902205
 41
5.497787143782336
 42
8.63937979737122
  0
ELLIPSE
  5
4708
330
18
100
AcDbEntity
  8
A-BACKING
100
AcDbEllipse
 10
1622.94862973324
 20
1011.843273528792
 30
0.0
 11
-0.1767766952961826
 21
0.0
 31
0.0
210
0.0
220
0.0
230
1.0
 40
0.5773502691902205
 41
5.497787143782336
 42
8.63937979737122
  0
ELLIPSE
  5
4709
330
18
100
AcDbEntity
  8
A-BACKING
100
AcDbEllipse
 10
1623.198629733239
 20
1011.698935961495
 30
0.0
 11
-0.1767766952961826
 21
0.0
 31
0.0
210
0.0
220
0.0
230
1.0
 40
0.5773502691902205
 41
5.497787143782336
 42
8.63937979737122
  0
ELLIPSE
  5
470A
330
18
100
AcDbEntity
  8
A-BACKING
100
AcDbEllipse
 10
1623.448629733238
 20
1011.554598394198
 30
0.0
 11
-0.1767766952961826
 21
0.0
 31
0.0
210
0.0
220
0.0
230
1.0
 40
0.5773502691902205
 41
5.497787143782336
 42
8.63937979737122
  0
ELLIPSE
  5
470B
330
18
100
AcDbEntity
  8
A-BACKING
100
AcDbEllipse
 10
1623.698629733238
 20
1011.4102608269
 30
0.0
 11
-0.1767766952961826
 21
0.0
 31
0.0
210
0.0
220
0.0
230
1.0
 40
0.5773502691902205
 41
5.497787143782336
 42
8.63937979737122
  0
ELLIPSE
  5
470C
330
18
100
AcDbEntity
  8
A-BACKING
100
AcDbEllipse
 10
1623.948629733238
 20
1011.265923259603
 30
0.0
 11
-0.1767766952961826
 21
0.0
 31
0.0
210
0.0
220
0.0
230
1.0
 40
0.5773502691902205
 41
5.497787143782336
 42
8.63937979737122
  0
ELLIPSE
  5
470D
330
18
100
AcDbEntity
  8
A-BACKING
100
AcDbEllipse
 10
1624.198629733237
 20
1011.121585692306
 30
0.0
 11
-0.1767766952961826
 21
0.0
 31
0.0
210
0.0
220
0.0
230
1.0
 40
0.5773502691902205
 41
5.497787143782336
 42
8.63937979737122
  0
ELLIPSE
  5
470E
330
18
100
AcDbEntity
  8
A-BACKING
100
AcDbEllipse
 10
1624.448629733236
 20
1010.977248125009
 30
0.0
 11
-0.1767766952961826
 21
0.0
 31
0.0
210
0.0
220
0.0
230
1.0
 40
0.5773502691902205
 41
5.497787143782336
 42
8.63937979737122
  0
ELLIPSE
  5
470F
330
18
100
AcDbEntity
  8
A-BACKING
100
AcDbEllipse
 10
1624.698629733236
 20
1010.832910557711
 30
0.0
 11
-0.1767766952961826
 21
0.0
 31
0.0
210
0.0
220
0.0
230
1.0
 40
0.5773502691902205
 41
5.497787143782336
 42
8.63937979737122
  0
ELLIPSE
  5
4710
330
18
100
AcDbEntity
  8
A-BACKING
100
AcDbEllipse
 10
1624.948629733235
 20
1010.688572990414
 30
0.0
 11
-0.1767766952961826
 21
0.0
 31
0.0
210
0.0
220
0.0
230
1.0
 40
0.5773502691902205
 41
5.497787143782336
 42
8.63937979737122
  0
ELLIPSE
  5
4711
330
18
100
AcDbEntity
  8
A-BACKING
100
AcDbEllipse
 10
1625.198629733235
 20
1010.544235423117
 30
0.0
 11
-0.1767766952961826
 21
0.0
 31
0.0
210
0.0
220
0.0
230
1.0
 40
0.5773502691902205
 41
5.497787143782336
 42
8.63937979737122
  0
ELLIPSE
  5
4712
330
18
100
AcDbEntity
  8
A-BACKING
100
AcDbEllipse
 10
1625.448629733234
 20
1010.39989785582
 30
0.0
 11
-0.1767766952961826
 21
0.0
 31
0.0
210
0.0
220
0.0
230
1.0
 40
0.5773502691902205
 41
5.497787143782336
 42
8.63937979737122
  0
LINE
  5
4713
330
18
100
AcDbEntity
  8
A-MTL_GRID
100
AcDbLine
 10
1622.542832868121
 20
1011.859701145312
 30
0.0
 11
1622.606504567452
 21
1011.896462018061
 31
0.0
  0
LINE
  5
4714
330
18
100
AcDbEntity
  8
A-MTL_GRID
100
AcDbLine
 10
1622.606504567452
 20
1011.896462018061
 30
0.0
 11
1623.389058098146
 21
1008.587119247438
 31
0.0
  0
LINE
  5
4715
330
18
100
AcDbEntity
  8
A-MTL_GRID
100
AcDbLine
 10
1623.351359838716
 20
1008.433950831248
 30
0.0
 11
1623.162972289452
 21
1008.325185228969
 31
0.0
  0
LINE
  5
4716
330
18
100
AcDbEntity
  8
A-MTL_GRID
100
AcDbLine
 10
1623.162972289452
 20
1008.450185228969
 30
0.0
 11
1623.325352052663
 21
1008.543935228969
 31
0.0
  0
ELLIPSE
  5
4717
330
18
100
AcDbEntity
  8
A-MTL_GRID
100
AcDbEllipse
 10
1623.162972289452
 20
1008.387685228969
 30
0.0
 11
-0.03827327723120517
 21
-0.06629126073638537
 31
0.0
210
0.0
220
0.0
230
0.9999999999999999
 40
0.57735026919089
 41
3.926990816987889
 42
7.068583470573482
  0
LINE
  5
4718
330
18
100
AcDbEntity
  8
A-MTL_GRID
100
AcDbLine
 10
1623.162972289452
 20
1008.387685228969
 30
0.0
 11
1623.316978640399
 21
1008.476600837144
 31
0.0
  0
ARC
  5
4719
330
18
100
AcDbEntity
  8
A-MTL_GRID
100
AcDbCircle
 10
1623.316978640399
 20
1008.299412162162
 30
0.0
 40
0.1621855859829784
100
AcDbArc
 50
46.08804822394222
 51
101.1092566814824
  0
ARC
  5
471A
330
18
100
AcDbEntity
  8
A-MTL_GRID
100
AcDbCircle
 10
1623.222066704445
 20
1008.617265948572
 30
0.0
 40
0.1696907456502542
100
AcDbArc
 50
304.008991205541
 51
349.7667000291765
  0
LINE
  5
4721
330
18
100
AcDbEntity
  8
A-MTL_GRID
100
AcDbLine
 10
1623.429462797163
 20
1008.41625170503
 30
0.0
 11
1624.176394449602
 21
1005.257550392981
 31
0.0
  0
LINE
  5
4722
330
18
100
AcDbEntity
  8
A-MTL_GRID
100
AcDbLine
 10
1623.351359838716
 20
1008.433950831248
 30
0.0
 11
1624.11268840412
 21
1005.214366374512
 31
0.0
  0
LINE
  5
4723
330
18
100
AcDbEntity
  8
A-MTL_GRID
100
AcDbLine
 10
1624.138696190174
 20
1005.104381976791
 30
0.0
 11
1623.950308640909
 21
1004.995616374512
 31
0.0
  0
LINE
  5
4724
330
18
100
AcDbEntity
  8
A-MTL_GRID
100
AcDbLine
 10
1623.950308640909
 20
1005.120616374511
 30
0.0
 11
1624.112688404119
 21
1005.214366374512
 31
0.0
  0
ELLIPSE
  5
4725
330
18
100
AcDbEntity
  8
A-MTL_GRID
100
AcDbEllipse
 10
1623.950308640909
 20
1005.058116374511
 30
0.0
 11
-0.03827327723120517
 21
-0.06629126073638537
 31
0.0
210
0.0
220
0.0
230
0.9999999999999999
 40
0.57735026919089
 41
3.926990816987889
 42
7.068583470573482
  0
LINE
  5
4726
330
18
100
AcDbEntity
  8
A-MTL_GRID
100
AcDbLine
 10
1623.950308640909
 20
1005.058116374511
 30
0.0
 11
1624.104314991856
 21
1005.147031982687
 31
0.0
  0
ARC
  5
4727
330
18
100
AcDbEntity
  8
A-MTL_GRID
100
AcDbCircle
 10
1624.104314991856
 20
1004.969843307706
 30
0.0
 40
0.162185585981844
100
AcDbArc
 50
46.08804822377941
 51
101.109256681552
  0
ARC
  5
4728
330
18
100
AcDbEntity
  8
A-MTL_GRID
100
AcDbCircle
 10
1624.009403055904
 20
1005.287697094113
 30
0.0
 40
0.1696907456474132
100
AcDbArc
 50
304.0089912053547
 51
349.7667000296687
  0
LINE
  5
4729
330
18
100
AcDbEntity
  8
A-MTL_GRID
100
AcDbLine
 10
1624.138696190174
 20
1005.104381976791
 30
0.0
 11
1624.900024755576
 21
1001.884797520055
 31
0.0
  0
LINE
  5
472A
330
18
100
AcDbEntity
  8
A-MTL_GRID
100
AcDbLine
 10
1624.216799148619
 20
1005.086682850573
 30
0.0
 11
1624.963730801059
 21
1001.927981538525
 31
0.0
  0
LINE
  5
4740
330
18
100
AcDbEntity
  8
A-MTL_GRID
100
AcDbLine
 10
1624.92603254163
 20
1001.774813122335
 30
0.0
 11
1625.687361107025
 21
998.5552286656317
 31
0.0
  0
LINE
  5
4742
330
18
100
AcDbEntity
  8
A-MTL_GRID
100
AcDbLine
 10
1625.004135500077
 20
1001.757113996116
 30
0.0
 11
1625.765403334108
 21
998.5377863664457
 31
0.0
  0
LINE
  5
4743
330
18
100
AcDbEntity
  8
A-MTL_GRID
100
AcDbLine
 10
1618.654764442729
 20
1002.365500242837
 30
0.0
 11
1625.470854756079
 21
998.430228665605
 31
0.0
  0
LINE
  5
4744
330
18
100
AcDbEntity
  8
A-MTL_GRID
100
AcDbLine
 10
1625.470854756079
 20
998.430228665605
 30
0.0
 11
1625.470854756079
 21
998.3677286655991
 31
0.0
  0
ELLIPSE
  5
4760
330
18
100
AcDbEntity
  8
A-MTL_GRID
100
AcDbEllipse
 10
1619.322654643023
 20
1012.612272901883
 30
0.0
 11
0.1148198316930119
 21
-0.1988737822086873
 31
0.0
210
0.0
220
0.0
230
0.9999999999999998
 40
0.5773502691899645
 41
0.0
 42
6.283185307179586
  0
ELLIPSE
  5
4761
330
18
100
AcDbEntity
  8
A-MTL_GRID
 62
     5
100
AcDbEllipse
 10
1619.376781230731
 20
1012.643522901898
 30
0.0
 11
0.1148198316930119
 21
-0.1988737822086873
 31
0.0
210
0.0
220
0.0
230
1.0
 40
0.5773502691899645
 41
3.379533778613869
 42
6.04524418266957
  0
ELLIPSE
  5
4762
330
18
100
AcDbEntity
  8
A-MTL_GRID
100
AcDbEllipse
 10
1620.946452275119
 20
1011.674772901883
 30
0.0
 11
0.1148198316930119
 21
-0.1988737822086873
 31
0.0
210
0.0
220
0.0
230
1.0
 40
0.5773502691899645
 41
0.0
 42
6.283185307179586
  0
ELLIPSE
  5
4763
330
18
100
AcDbEntity
  8
A-MTL_GRID
 62
     5
100
AcDbEllipse
 10
1621.000578862827
 20
1011.706022901898
 30
0.0
 11
0.1148198316930119
 21
-0.1988737822086873
 31
0.0
210
0.0
220
0.0
230
1.0
 40
0.5773502691899645
 41
3.379533778613869
 42
6.04524418266957
  0
ELLIPSE
  5
4764
330
18
100
AcDbEntity
  8
A-MTL_GRID
100
AcDbEllipse
 10
1620.405186397754
 20
1011.987272901883
 30
0.0
 11
0.1148198316930119
 21
-0.1988737822086873
 31
0.0
210
0.0
220
0.0
230
1.0
 40
0.5773502691899645
 41
0.0
 42
6.283185307179586
  0
ELLIPSE
  5
4765
330
18
100
AcDbEntity
  8
A-MTL_GRID
 62
     5
100
AcDbEllipse
 10
1620.459312985462
 20
1012.018522901898
 30
0.0
 11
0.1148198316930119
 21
-0.1988737822086873
 31
0.0
210
0.0
220
0.0
230
1.0
 40
0.5773502691899645
 41
3.379533778613869
 42
6.04524418266957
  0
ELLIPSE
  5
4766
330
18
100
AcDbEntity
  8
A-MTL_GRID
100
AcDbEllipse
 10
1619.863920520388
 20
1012.299772901883
 30
0.0
 11
0.1148198316930119
 21
-0.1988737822086873
 31
0.0
210
0.0
220
0.0
230
1.0
 40
0.5773502691899645
 41
0.0
 42
6.283185307179586
  0
ELLIPSE
  5
4767
330
18
100
AcDbEntity
  8
A-MTL_GRID
 62
     5
100
AcDbEllipse
 10
1619.918047108097
 20
1012.331022901898
 30
0.0
 11
0.1148198316930119
 21
-0.1988737822086873
 31
0.0
210
0.0
220
0.0
230
1.0
 40
0.5773502691899645
 41
3.379533778613869
 42
6.04524418266957
  0
ELLIPSE
  5
4768
330
18
100
AcDbEntity
  8
A-MTL_GRID
100
AcDbEllipse
 10
1621.487718152484
 20
1011.362272901883
 30
0.0
 11
0.1148198316930119
 21
-0.1988737822086873
 31
0.0
210
0.0
220
0.0
230
0.9999999999999998
 40
0.5773502691899645
 41
0.0
 42
6.283185307179586
  0
ELLIPSE
  5
4769
330
18
100
AcDbEntity
  8
A-MTL_GRID
 62
     5
100
AcDbEllipse
 10
1621.541844740193
 20
1011.393522901898
 30
0.0
 11
0.1148198316930119
 21
-0.1988737822086873
 31
0.0
210
0.0
220
0.0
230
1.0
 40
0.5773502691899645
 41
3.379533778613869
 42
6.04524418266957
  0
ELLIPSE
  5
476C
330
18
100
AcDbEntity
  8
A-MTL_GRID
100
AcDbEllipse
 10
1622.570249907215
 20
1010.737272901883
 30
0.0
 11
0.1148198316930119
 21
-0.1988737822086873
 31
0.0
210
0.0
220
0.0
230
1.0
 40
0.5773502691899645
 41
0.0
 42
6.283185307179586
  0
ELLIPSE
  5
476D
330
18
100
AcDbEntity
  8
A-MTL_GRID
 62
     5
100
AcDbEllipse
 10
1622.624376494923
 20
1010.768522901898
 30
0.0
 11
0.1148198316930119
 21
-0.1988737822086873
 31
0.0
210
0.0
220
0.0
230
1.0
 40
0.5773502691899645
 41
3.379533778613869
 42
6.04524418266957
  0
ELLIPSE
  5
476E
330
18
100
AcDbEntity
  8
A-MTL_GRID
100
AcDbEllipse
 10
1622.028984029849
 20
1011.049772901883
 30
0.0
 11
0.1148198316930119
 21
-0.1988737822086873
 31
0.0
210
0.0
220
0.0
230
1.0
 40
0.5773502691899645
 41
0.0
 42
6.283185307179586
  0
ELLIPSE
  5
476F
330
18
100
AcDbEntity
  8
A-MTL_GRID
 62
     5
100
AcDbEllipse
 10
1622.083110617558
 20
1011.081022901898
 30
0.0
 11
0.1148198316930119
 21
-0.1988737822086873
 31
0.0
210
0.0
220
0.0
230
1.0
 40
0.5773502691899645
 41
3.379533778613869
 42
6.04524418266957
  0
ELLIPSE
  5
4770
330
18
100
AcDbEntity
  8
A-MTL_GRID
100
AcDbEllipse
 10
1620.134553459071
 20
1009.143522901883
 30
0.0
 11
0.1148198316930119
 21
-0.1988737822086873
 31
0.0
210
0.0
220
0.0
230
1.0
 40
0.5773502691899645
 41
0.0
 42
6.283185307179586
  0
ELLIPSE
  5
4771
330
18
100
AcDbEntity
  8
A-MTL_GRID
 62
     5
100
AcDbEllipse
 10
1620.18868004678
 20
1009.174772901899
 30
0.0
 11
0.1148198316930119
 21
-0.1988737822086873
 31
0.0
210
0.0
220
0.0
230
1.0
 40
0.5773502691899645
 41
3.379533778613869
 42
6.04524418266957
  0
ELLIPSE
  5
4772
330
18
100
AcDbEntity
  8
A-MTL_GRID
100
AcDbEllipse
 10
1619.593287581706
 20
1009.456022901883
 30
0.0
 11
0.1148198316930119
 21
-0.1988737822086873
 31
0.0
210
0.0
220
0.0
230
1.0
 40
0.5773502691899645
 41
0.0
 42
6.283185307179586
  0
ELLIPSE
  5
4773
330
18
100
AcDbEntity
  8
A-MTL_GRID
 62
     5
100
AcDbEllipse
 10
1619.647414169414
 20
1009.487272901899
 30
0.0
 11
0.1148198316930119
 21
-0.1988737822086873
 31
0.0
210
0.0
220
0.0
230
1.0
 40
0.5773502691899645
 41
3.379533778613869
 42
6.04524418266957
  0
ELLIPSE
  5
4774
330
18
100
AcDbEntity
  8
A-MTL_GRID
100
AcDbEllipse
 10
1621.758351091167
 20
1008.206022901883
 30
0.0
 11
0.1148198316930119
 21
-0.1988737822086873
 31
0.0
210
0.0
220
0.0
230
1.0
 40
0.5773502691899645
 41
0.0
 42
6.283185307179586
  0
ELLIPSE
  5
4775
330
18
100
AcDbEntity
  8
A-MTL_GRID
 62
     5
100
AcDbEllipse
 10
1621.812477678875
 20
1008.237272901899
 30
0.0
 11
0.1148198316930119
 21
-0.1988737822086873
 31
0.0
210
0.0
220
0.0
230
1.0
 40
0.5773502691899645
 41
3.379533778613869
 42
6.04524418266957
  0
ELLIPSE
  5
4776
330
18
100
AcDbEntity
  8
A-MTL_GRID
100
AcDbEllipse
 10
1621.217085213802
 20
1008.518522901883
 30
0.0
 11
0.1148198316930119
 21
-0.1988737822086873
 31
0.0
210
0.0
220
0.0
230
1.0
 40
0.5773502691899645
 41
0.0
 42
6.283185307179586
  0
ELLIPSE
  5
4777
330
18
100
AcDbEntity
  8
A-MTL_GRID
 62
     5
100
AcDbEllipse
 10
1621.27121180151
 20
1008.549772901899
 30
0.0
 11
0.1148198316930119
 21
-0.1988737822086873
 31
0.0
210
0.0
220
0.0
230
1.0
 40
0.5773502691899645
 41
3.379533778613869
 42
6.04524418266957
  0
ELLIPSE
  5
4778
330
18
100
AcDbEntity
  8
A-MTL_GRID
100
AcDbEllipse
 10
1620.675819336436
 20
1008.831022901883
 30
0.0
 11
0.1148198316930119
 21
-0.1988737822086873
 31
0.0
210
0.0
220
0.0
230
1.0
 40
0.5773502691899645
 41
0.0
 42
6.283185307179586
  0
ELLIPSE
  5
4779
330
18
100
AcDbEntity
  8
A-MTL_GRID
 62
     5
100
AcDbEllipse
 10
1620.729945924145
 20
1008.862272901899
 30
0.0
 11
0.1148198316930119
 21
-0.1988737822086873
 31
0.0
210
0.0
220
0.0
230
1.0
 40
0.5773502691899645
 41
3.379533778613869
 42
6.04524418266957
  0
ELLIPSE
  5
477A
330
18
100
AcDbEntity
  8
A-MTL_GRID
100
AcDbEllipse
 10
1622.840882845898
 20
1007.581022901883
 30
0.0
 11
0.1148198316930119
 21
-0.1988737822086873
 31
0.0
210
0.0
220
0.0
230
1.0
 40
0.5773502691899645
 41
0.0
 42
6.283185307179586
  0
ELLIPSE
  5
477B
330
18
100
AcDbEntity
  8
A-MTL_GRID
 62
     5
100
AcDbEllipse
 10
1622.895009433606
 20
1007.612272901899
 30
0.0
 11
0.1148198316930119
 21
-0.1988737822086873
 31
0.0
210
0.0
220
0.0
230
1.0
 40
0.5773502691899645
 41
3.379533778613869
 42
6.04524418266957
  0
ELLIPSE
  5
477C
330
18
100
AcDbEntity
  8
A-MTL_GRID
100
AcDbEllipse
 10
1622.299616968532
 20
1007.893522901883
 30
0.0
 11
0.1148198316930119
 21
-0.1988737822086873
 31
0.0
210
0.0
220
0.0
230
1.0
 40
0.5773502691899645
 41
0.0
 42
6.283185307179586
  0
ELLIPSE
  5
477D
330
18
100
AcDbEntity
  8
A-MTL_GRID
 62
     5
100
AcDbEllipse
 10
1622.353743556241
 20
1007.924772901899
 30
0.0
 11
0.1148198316930119
 21
-0.1988737822086873
 31
0.0
210
0.0
220
0.0
230
1.0
 40
0.5773502691899645
 41
3.379533778613869
 42
6.04524418266957
  0
ELLIPSE
  5
4780
330
18
100
AcDbEntity
  8
A-MTL_GRID
100
AcDbEllipse
 10
1623.382148723263
 20
1007.268522901883
 30
0.0
 11
0.1148198316930119
 21
-0.1988737822086873
 31
0.0
210
0.0
220
0.0
230
1.0
 40
0.5773502691899645
 41
0.0
 42
6.283185307179586
  0
ELLIPSE
  5
4781
330
18
100
AcDbEntity
  8
A-MTL_GRID
 62
     5
100
AcDbEllipse
 10
1623.436275310971
 20
1007.299772901899
 30
0.0
 11
0.1148198316930119
 21
-0.1988737822086873
 31
0.0
210
0.0
220
0.0
230
1.0
 40
0.5773502691899645
 41
3.379533778613869
 42
6.04524418266957
  0
ELLIPSE
  5
4782
330
18
100
AcDbEntity
  8
A-MTL_GRID
100
AcDbEllipse
 10
1619.322654643023
 20
1006.737272901883
 30
0.0
 11
0.1148198316930119
 21
-0.1988737822086873
 31
0.0
210
0.0
220
0.0
230
1.0
 40
0.5773502691899645
 41
0.0
 42
6.283185307179586
  0
ELLIPSE
  5
4783
330
18
100
AcDbEntity
  8
A-MTL_GRID
 62
     5
100
AcDbEllipse
 10
1619.376781230731
 20
1006.768522901898
 30
0.0
 11
0.1148198316930119
 21
-0.1988737822086873
 31
0.0
210
0.0
220
0.0
230
1.0
 40
0.5773502691899645
 41
3.379533778613869
 42
6.04524418266957
  0
ELLIPSE
  5
4784
330
18
100
AcDbEntity
  8
A-MTL_GRID
100
AcDbEllipse
 10
1619.863920520388
 20
1006.424772901883
 30
0.0
 11
0.1148198316930119
 21
-0.1988737822086873
 31
0.0
210
0.0
220
0.0
230
1.0
 40
0.5773502691899645
 41
0.0
 42
6.283185307179586
  0
ELLIPSE
  5
4785
330
18
100
AcDbEntity
  8
A-MTL_GRID
 62
     5
100
AcDbEllipse
 10
1619.918047108097
 20
1006.456022901898
 30
0.0
 11
0.1148198316930119
 21
-0.1988737822086873
 31
0.0
210
0.0
220
0.0
230
1.0
 40
0.5773502691899645
 41
3.379533778613869
 42
6.04524418266957
  0
ELLIPSE
  5
4786
330
18
100
AcDbEntity
  8
A-MTL_GRID
100
AcDbEllipse
 10
1620.405186397754
 20
1006.112272901883
 30
0.0
 11
0.1148198316930119
 21
-0.1988737822086873
 31
0.0
210
0.0
220
0.0
230
1.0
 40
0.5773502691899645
 41
0.0
 42
6.283185307179586
  0
ELLIPSE
  5
4787
330
18
100
AcDbEntity
  8
A-MTL_GRID
 62
     5
100
AcDbEllipse
 10
1620.459312985462
 20
1006.143522901898
 30
0.0
 11
0.1148198316930119
 21
-0.1988737822086873
 31
0.0
210
0.0
220
0.0
230
1.0
 40
0.5773502691899645
 41
3.379533778613869
 42
6.04524418266957
  0
ELLIPSE
  5
4788
330
18
100
AcDbEntity
  8
A-MTL_GRID
100
AcDbEllipse
 10
1620.946452275119
 20
1005.799772901883
 30
0.0
 11
0.1148198316930119
 21
-0.1988737822086873
 31
0.0
210
0.0
220
0.0
230
1.0
 40
0.5773502691899645
 41
0.0
 42
6.283185307179586
  0
ELLIPSE
  5
4789
330
18
100
AcDbEntity
  8
A-MTL_GRID
 62
     5
100
AcDbEllipse
 10
1621.000578862827
 20
1005.831022901898
 30
0.0
 11
0.1148198316930119
 21
-0.1988737822086873
 31
0.0
210
0.0
220
0.0
230
1.0
 40
0.5773502691899645
 41
3.379533778613869
 42
6.04524418266957
  0
ELLIPSE
  5
478A
330
18
100
AcDbEntity
  8
A-MTL_GRID
100
AcDbEllipse
 10
1621.487718152484
 20
1005.487272901883
 30
0.0
 11
0.1148198316930119
 21
-0.1988737822086873
 31
0.0
210
0.0
220
0.0
230
1.0
 40
0.5773502691899645
 41
0.0
 42
6.283185307179586
  0
ELLIPSE
  5
478B
330
18
100
AcDbEntity
  8
A-MTL_GRID
 62
     5
100
AcDbEllipse
 10
1621.541844740193
 20
1005.518522901898
 30
0.0
 11
0.1148198316930119
 21
-0.1988737822086873
 31
0.0
210
0.0
220
0.0
230
1.0
 40
0.5773502691899645
 41
3.379533778613869
 42
6.04524418266957
  0
ELLIPSE
  5
478C
330
18
100
AcDbEntity
  8
A-MTL_GRID
100
AcDbEllipse
 10
1622.028984029849
 20
1005.174772901883
 30
0.0
 11
0.1148198316930119
 21
-0.1988737822086873
 31
0.0
210
0.0
220
0.0
230
1.0
 40
0.5773502691899645
 41
0.0
 42
6.283185307179586
  0
ELLIPSE
  5
478D
330
18
100
AcDbEntity
  8
A-MTL_GRID
 62
     5
100
AcDbEllipse
 10
1622.083110617558
 20
1005.206022901898
 30
0.0
 11
0.1148198316930119
 21
-0.1988737822086873
 31
0.0
210
0.0
220
0.0
230
1.0
 40
0.5773502691899645
 41
3.379533778613869
 42
6.04524418266957
  0
ELLIPSE
  5
478E
330
18
100
AcDbEntity
  8
A-MTL_GRID
100
AcDbEllipse
 10
1622.570249907215
 20
1004.862272901883
 30
0.0
 11
0.1148198316930119
 21
-0.1988737822086873
 31
0.0
210
0.0
220
0.0
230
1.0
 40
0.5773502691899645
 41
0.0
 42
6.283185307179586
  0
ELLIPSE
  5
478F
330
18
100
AcDbEntity
  8
A-MTL_GRID
 62
     5
100
AcDbEllipse
 10
1622.624376494923
 20
1004.893522901898
 30
0.0
 11
0.1148198316930119
 21
-0.1988737822086873
 31
0.0
210
0.0
220
0.0
230
1.0
 40
0.5773502691899645
 41
3.379533778613869
 42
6.04524418266957
  0
ELLIPSE
  5
4790
330
18
100
AcDbEntity
  8
A-MTL_GRID
100
AcDbEllipse
 10
1623.11151578458
 20
1004.549772901883
 30
0.0
 11
0.1148198316930119
 21
-0.1988737822086873
 31
0.0
210
0.0
220
0.0
230
1.0
 40
0.5773502691899645
 41
0.0
 42
6.283185307179586
  0
ELLIPSE
  5
4791
330
18
100
AcDbEntity
  8
A-MTL_GRID
 62
     5
100
AcDbEllipse
 10
1623.165642372288
 20
1004.581022901898
 30
0.0
 11
0.1148198316930119
 21
-0.1988737822086873
 31
0.0
210
0.0
220
0.0
230
1.0
 40
0.5773502691899645
 41
3.379533778613869
 42
6.04524418266957
  0
ELLIPSE
  5
4792
330
18
100
AcDbEntity
  8
A-MTL_GRID
100
AcDbEllipse
 10
1623.652781661945
 20
1004.237272901883
 30
0.0
 11
0.1148198316930119
 21
-0.1988737822086873
 31
0.0
210
0.0
220
0.0
230
1.0
 40
0.5773502691899645
 41
0.0
 42
6.283185307179586
  0
ELLIPSE
  5
4793
330
18
100
AcDbEntity
  8
A-MTL_GRID
 62
     5
100
AcDbEllipse
 10
1623.706908249654
 20
1004.268522901898
 30
0.0
 11
0.1148198316930119
 21
-0.1988737822086873
 31
0.0
210
0.0
220
0.0
230
1.0
 40
0.5773502691899645
 41
3.379533778613869
 42
6.04524418266957
  0
ELLIPSE
  5
4794
330
18
100
AcDbEntity
  8
A-MTL_GRID
100
AcDbEllipse
 10
1624.194047539311
 20
1003.924772901883
 30
0.0
 11
0.1148198316930119
 21
-0.1988737822086873
 31
0.0
210
0.0
220
0.0
230
1.0
 40
0.5773502691899645
 41
0.0
 42
6.283185307179586
  0
ELLIPSE
  5
4795
330
18
100
AcDbEntity
  8
A-MTL_GRID
 62
     5
100
AcDbEllipse
 10
1624.248174127019
 20
1003.956022901898
 30
0.0
 11
0.1148198316930119
 21
-0.1988737822086873
 31
0.0
210
0.0
220
0.0
230
1.0
 40
0.5773502691899645
 41
3.379533778613869
 42
6.04524418266957
  0
ELLIPSE
  5
479A
330
18
100
AcDbEntity
  8
A-MTL_GRID
100
AcDbEllipse
 10
1619.593287581706
 20
1003.706022901883
 30
0.0
 11
0.1148198316930119
 21
-0.1988737822086873
 31
0.0
210
0.0
220
0.0
230
1.0
 40
0.5773502691899645
 41
0.0
 42
6.283185307179586
  0
ELLIPSE
  5
479B
330
18
100
AcDbEntity
  8
A-MTL_GRID
 62
     5
100
AcDbEllipse
 10
1619.647414169414
 20
1003.737272901899
 30
0.0
 11
0.1148198316930119
 21
-0.1988737822086873
 31
0.0
210
0.0
220
0.0
230
1.0
 40
0.5773502691899645
 41
3.379533778613869
 42
6.04524418266957
  0
ELLIPSE
  5
479C
330
18
100
AcDbEntity
  8
A-MTL_GRID
100
AcDbEllipse
 10
1620.134553459071
 20
1003.393522901883
 30
0.0
 11
0.1148198316930119
 21
-0.1988737822086873
 31
0.0
210
0.0
220
0.0
230
1.0
 40
0.5773502691899645
 41
0.0
 42
6.283185307179586
  0
ELLIPSE
  5
479D
330
18
100
AcDbEntity
  8
A-MTL_GRID
 62
     5
100
AcDbEllipse
 10
1620.18868004678
 20
1003.424772901899
 30
0.0
 11
0.1148198316930119
 21
-0.1988737822086873
 31
0.0
210
0.0
220
0.0
230
1.0
 40
0.5773502691899645
 41
3.379533778613869
 42
6.04524418266957
  0
ELLIPSE
  5
479E
330
18
100
AcDbEntity
  8
A-MTL_GRID
100
AcDbEllipse
 10
1620.675819336436
 20
1003.081022901883
 30
0.0
 11
0.1148198316930119
 21
-0.1988737822086873
 31
0.0
210
0.0
220
0.0
230
1.0
 40
0.5773502691899645
 41
0.0
 42
6.283185307179586
  0
ELLIPSE
  5
479F
330
18
100
AcDbEntity
  8
A-MTL_GRID
 62
     5
100
AcDbEllipse
 10
1620.729945924145
 20
1003.112272901899
 30
0.0
 11
0.1148198316930119
 21
-0.1988737822086873
 31
0.0
210
0.0
220
0.0
230
1.0
 40
0.5773502691899645
 41
3.379533778613869
 42
6.04524418266957
  0
ELLIPSE
  5
47A0
330
18
100
AcDbEntity
  8
A-MTL_GRID
100
AcDbEllipse
 10
1621.217085213802
 20
1002.768522901883
 30
0.0
 11
0.1148198316930119
 21
-0.1988737822086873
 31
0.0
210
0.0
220
0.0
230
1.0
 40
0.5773502691899645
 41
0.0
 42
6.283185307179586
  0
ELLIPSE
  5
47A1
330
18
100
AcDbEntity
  8
A-MTL_GRID
 62
     5
100
AcDbEllipse
 10
1621.27121180151
 20
1002.799772901899
 30
0.0
 11
0.1148198316930119
 21
-0.1988737822086873
 31
0.0
210
0.0
220
0.0
230
1.0
 40
0.5773502691899645
 41
3.379533778613869
 42
6.04524418266957
  0
ELLIPSE
  5
47A2
330
18
100
AcDbEntity
  8
A-MTL_GRID
100
AcDbEllipse
 10
1621.758351091167
 20
1002.456022901883
 30
0.0
 11
0.1148198316930119
 21
-0.1988737822086873
 31
0.0
210
0.0
220
0.0
230
1.0
 40
0.5773502691899645
 41
0.0
 42
6.283185307179586
  0
ELLIPSE
  5
47A3
330
18
100
AcDbEntity
  8
A-MTL_GRID
 62
     5
100
AcDbEllipse
 10
1621.812477678875
 20
1002.487272901899
 30
0.0
 11
0.1148198316930119
 21
-0.1988737822086873
 31
0.0
210
0.0
220
0.0
230
1.0
 40
0.5773502691899645
 41
3.379533778613869
 42
6.04524418266957
  0
ELLIPSE
  5
47A4
330
18
100
AcDbEntity
  8
A-MTL_GRID
100
AcDbEllipse
 10
1622.299616968532
 20
1002.143522901883
 30
0.0
 11
0.1148198316930119
 21
-0.1988737822086873
 31
0.0
210
0.0
220
0.0
230
1.0
 40
0.5773502691899645
 41
0.0
 42
6.283185307179586
  0
ELLIPSE
  5
47A5
330
18
100
AcDbEntity
  8
A-MTL_GRID
 62
     5
100
AcDbEllipse
 10
1622.353743556241
 20
1002.174772901899
 30
0.0
 11
0.1148198316930119
 21
-0.1988737822086873
 31
0.0
210
0.0
220
0.0
230
1.0
 40
0.5773502691899645
 41
3.379533778613869
 42
6.04524418266957
  0
ELLIPSE
  5
47A6
330
18
100
AcDbEntity
  8
A-MTL_GRID
100
AcDbEllipse
 10
1622.840882845898
 20
1001.831022901883
 30
0.0
 11
0.1148198316930119
 21
-0.1988737822086873
 31
0.0
210
0.0
220
0.0
230
1.0
 40
0.5773502691899645
 41
0.0
 42
6.283185307179586
  0
ELLIPSE
  5
47A7
330
18
100
AcDbEntity
  8
A-MTL_GRID
 62
     5
100
AcDbEllipse
 10
1622.895009433606
 20
1001.862272901899
 30
0.0
 11
0.1148198316930119
 21
-0.1988737822086873
 31
0.0
210
0.0
220
0.0
230
1.0
 40
0.5773502691899645
 41
3.379533778613869
 42
6.04524418266957
  0
ELLIPSE
  5
47A8
330
18
100
AcDbEntity
  8
A-MTL_GRID
100
AcDbEllipse
 10
1623.382148723263
 20
1001.518522901883
 30
0.0
 11
0.1148198316930119
 21
-0.1988737822086873
 31
0.0
210
0.0
220
0.0
230
1.0
 40
0.5773502691899645
 41
0.0
 42
6.283185307179586
  0
ELLIPSE
  5
47A9
330
18
100
AcDbEntity
  8
A-MTL_GRID
 62
     5
100
AcDbEllipse
 10
1623.436275310971
 20
1001.549772901899
 30
0.0
 11
0.1148198316930119
 21
-0.1988737822086873
 31
0.0
210
0.0
220
0.0
230
1.0
 40
0.5773502691899645
 41
3.379533778613869
 42
6.04524418266957
  0
ELLIPSE
  5
47AA
330
18
100
AcDbEntity
  8
A-MTL_GRID
100
AcDbEllipse
 10
1623.923414600628
 20
1001.206022901883
 30
0.0
 11
0.1148198316930119
 21
-0.1988737822086873
 31
0.0
210
0.0
220
0.0
230
1.0
 40
0.5773502691899645
 41
0.0
 42
6.283185307179586
  0
ELLIPSE
  5
47AB
330
18
100
AcDbEntity
  8
A-MTL_GRID
 62
     5
100
AcDbEllipse
 10
1623.977541188337
 20
1001.237272901899
 30
0.0
 11
0.1148198316930119
 21
-0.1988737822086873
 31
0.0
210
0.0
220
0.0
230
1.0
 40
0.5773502691899645
 41
3.379533778613869
 42
6.04524418266957
  0
ELLIPSE
  5
47AC
330
18
100
AcDbEntity
  8
A-MTL_GRID
100
AcDbEllipse
 10
1624.464680477993
 20
1000.893522901883
 30
0.0
 11
0.1148198316930119
 21
-0.1988737822086873
 31
0.0
210
0.0
220
0.0
230
1.0
 40
0.5773502691899645
 41
0.0
 42
6.283185307179586
  0
ELLIPSE
  5
47AD
330
18
100
AcDbEntity
  8
A-MTL_GRID
 62
     5
100
AcDbEllipse
 10
1624.518807065702
 20
1000.924772901899
 30
0.0
 11
0.1148198316930119
 21
-0.1988737822086873
 31
0.0
210
0.0
220
0.0
230
1.0
 40
0.5773502691899645
 41
3.379533778613869
 42
6.04524418266957
  0
ELLIPSE
  5
47AE
330
18
100
AcDbEntity
  8
A-MTL_GRID
100
AcDbEllipse
 10
1625.005946355359
 20
1000.581022901883
 30
0.0
 11
0.1148198316930119
 21
-0.1988737822086873
 31
0.0
210
0.0
220
0.0
230
1.0
 40
0.5773502691899645
 41
0.0
 42
6.283185307179586
  0
ELLIPSE
  5
47AF
330
18
100
AcDbEntity
  8
A-MTL_GRID
 62
     5
100
AcDbEllipse
 10
1625.060072943067
 20
1000.612272901899
 30
0.0
 11
0.1148198316930119
 21
-0.1988737822086873
 31
0.0
210
0.0
220
0.0
230
1.0
 40
0.5773502691899645
 41
3.379533778613869
 42
6.04524418266957
  0
LINE
  5
47CE
330
18
100
AcDbEntity
  8
A-BACKING
 62
     5
100
AcDbLine
 10
1625.771319983919
 20
1009.238855115191
 30
0.0
 11
1625.771319983919
 21
1001.312320437183
 31
0.0
  0
LINE
  5
47CF
330
18
100
AcDbEntity
  8
A-BACKING
 62
     5
100
AcDbLine
 10
1625.771319983916
 20
1009.238855115202
 30
0.0
 11
1625.771319983916
 21
998.4248446414413
 31
0.0
  0
LINE
  5
47D0
330
18
100
AcDbEntity
  8
A-BACKING
 62
     5
100
AcDbLine
 10
1626.021319983913
 20
1008.244802179415
 30
0.0
 11
1626.021319983913
 21
998.5636937337439
 31
0.0
  0
LINE
  5
47D1
330
18
100
AcDbEntity
  8
A-BACKING
 62
     5
100
AcDbLine
 10
1626.271319983912
 20
1004.780767700019
 30
0.0
 11
1626.271319983912
 21
998.1361695068459
 31
0.0
  0
LINE
  5
47D2
330
18
100
AcDbEntity
  8
A-BACKING
 62
     5
100
AcDbLine
 10
1626.521319983915
 20
1004.084778485992
 30
0.0
 11
1626.521319983915
 21
997.9918319395497
 31
0.0
  0
LINE
  5
47D3
330
18
100
AcDbEntity
  8
A-BACKING
 62
     5
100
AcDbLine
 10
1626.771319983914
 20
1002.765310400551
 30
0.0
 11
1626.771319983914
 21
997.928137172793
 31
0.0
  0
LINE
  5
47D4
330
18
100
AcDbEntity
  8
A-BACKING
 62
     5
100
AcDbLine
 10
1626.521319983917
 20
1004.084778485986
 30
0.0
 11
1626.521319983917
 21
1000.879307735291
 31
0.0
  0
LINE
  5
47D6
330
18
100
AcDbEntity
  8
A-BACKING
 62
     5
100
AcDbLine
 10
1626.771319983912
 20
1002.765310400575
 30
0.0
 11
1626.771319983912
 21
998.1306810318521
 31
0.0
  0
ELLIPSE
  5
47DB
330
18
100
AcDbEntity
  8
A-BACKING
100
AcDbEllipse
 10
1625.943554131888
 20
998.372163083691
 30
0.0
 11
-0.1767766952961826
 21
0.0
 31
0.0
210
0.0
220
0.0
230
1.0
 40
0.5773502691902205
 41
6.51037395330919
 42
8.30948018764978
  0
ELLIPSE
  5
47DC
330
18
100
AcDbEntity
  8
A-BACKING
100
AcDbEllipse
 10
1626.193554131888
 20
998.2278255163939
 30
0.0
 11
-0.1767766952961826
 21
0.0
 31
0.0
210
0.0
220
0.0
230
1.0
 40
0.5773502691902205
 41
6.510373953327322
 42
8.309480187632554
  0
ELLIPSE
  5
47DD
330
18
100
AcDbEntity
  8
A-BACKING
100
AcDbEllipse
 10
1625.693554131889
 20
998.5165006509885
 30
0.0
 11
-0.1767766952961826
 21
0.0
 31
0.0
210
0.0
220
0.0
230
1.0
 40
0.5773502691902205
 41
7.208969186455387
 42
8.309480187648267
  0
ELLIPSE
  5
47DE
330
18
100
AcDbEntity
  8
A-BACKING
100
AcDbEllipse
 10
1626.693554131887
 20
997.9391503817992
 30
0.0
 11
-0.1767766952961826
 21
0.0
 31
0.0
210
0.0
220
0.0
230
1.0
 40
0.5773502691902205
 41
6.510373953327322
 42
8.216397829573792
  0
ELLIPSE
  5
47E0
330
18
100
AcDbEntity
  8
A-BACKING
100
AcDbEllipse
 10
1626.443554131887
 20
998.0834879490967
 30
0.0
 11
-0.1767766952961826
 21
0.0
 31
0.0
210
0.0
220
0.0
230
1.0
 40
0.5773502691902205
 41
6.510373953258735
 42
8.309480187652621
  0
LINE
  5
47E1
330
18
100
AcDbEntity
  8
A-BACKING
100
AcDbLine
 10
1626.521319983915
 20
997.9161619914518
 30
0.0
 11
1626.521319983915
 21
997.9918319395497
 31
0.0
  0
LINE
  5
47E2
330
18
100
AcDbEntity
  8
A-BACKING
100
AcDbLine
 10
1626.271319983912
 20
998.0604995587561
 30
0.0
 11
1626.271319983912
 21
998.1361695068459
 31
0.0
  0
LINE
  5
47E3
330
18
100
AcDbEntity
  8
A-BACKING
100
AcDbLine
 10
1626.021319983916
 20
998.2048371260464
 30
0.0
 11
1626.021319983916
 21
998.2805070741439
 31
0.0
  0
LINE
  5
47E4
330
18
100
AcDbEntity
  8
A-BACKING
100
AcDbLine
 10
1625.771319983916
 20
998.3491746933454
 30
0.0
 11
1625.771319983916
 21
998.4248446414413
 31
0.0
  0
LINE
  5
47FA
330
18
100
AcDbEntity
  8
A-BACKING
 62
     5
100
AcDbLine
 10
1624.27131998393
 20
1010.97666983289
 30
0.0
 11
1624.271319983931
 21
1004.856119540706
 31
0.0
  0
LINE
  5
47FB
330
18
100
AcDbEntity
  8
A-BACKING
 62
     5
100
AcDbLine
 10
1624.521319983927
 20
1010.832332265592
 30
0.0
 11
1624.521319983927
 21
1003.798893855571
 31
0.0
  0
LINE
  5
47FC
330
18
100
AcDbEntity
  8
A-BACKING
 62
     5
100
AcDbLine
 10
1624.021319983931
 20
1011.121007400187
 30
0.0
 11
1624.021319983931
 21
1005.913345225855
 31
0.0
  0
LINE
  5
47FD
330
18
100
AcDbEntity
  8
A-BACKING
 62
     5
100
AcDbLine
 10
1623.521319983932
 20
1011.409682534782
 30
0.0
 11
1623.521319983932
 21
1008.027796596156
 31
0.0
  0
LINE
  5
47FE
330
18
100
AcDbEntity
  8
A-BACKING
 62
     5
100
AcDbLine
 10
1623.771319983929
 20
1011.265344967483
 30
0.0
 11
1623.771319983928
 21
1006.970570911018
 31
0.0
  0
LINE
  5
47FF
330
18
100
AcDbEntity
  8
A-BACKING
 62
     5
100
AcDbLine
 10
1623.271319983935
 20
1011.554020102081
 30
0.0
 11
1623.271319983935
 21
1009.085022281295
 31
0.0
  0
LINE
  5
4800
330
18
100
AcDbEntity
  8
A-BACKING
 62
     5
100
AcDbLine
 10
1622.771319983936
 20
1011.842695236675
 30
0.0
 11
1622.771319983936
 21
1011.199473651596
 31
0.0
  0
LINE
  5
4801
330
18
100
AcDbEntity
  8
A-BACKING
 62
     5
100
AcDbLine
 10
1623.021319983933
 20
1011.698357669377
 30
0.0
 11
1623.021319983933
 21
1010.142247966459
 31
0.0
  0
LINE
  5
4817
330
18
100
AcDbEntity
  8
A-BACKING
 62
     5
100
AcDbLine
 10
1625.323629733235
 20
1010.472066639468
 30
0.0
 11
1625.523389259657
 21
1010.587397855821
 31
0.0
  0
LINE
  5
4818
330
18
100
AcDbEntity
  8
A-BACKING
 62
     5
100
AcDbLine
 10
1625.073629733232
 20
1010.616404206764
 30
0.0
 11
1625.273389259657
 21
1010.731735423118
 31
0.0
  0
LINE
  5
4819
330
18
100
AcDbEntity
  8
A-BACKING
 62
     5
100
AcDbLine
 10
1624.823629733236
 20
1010.760741774063
 30
0.0
 11
1625.023389259657
 21
1010.876072990416
 31
0.0
  0
LINE
  5
481A
330
18
100
AcDbEntity
  8
A-BACKING
 62
     5
100
AcDbLine
 10
1624.573629733236
 20
1010.90507934136
 30
0.0
 11
1624.773389259658
 21
1011.020410557713
 31
0.0
  0
LINE
  5
481B
330
18
100
AcDbEntity
  8
A-BACKING
 62
     5
100
AcDbLine
 10
1624.323629733236
 20
1011.049416908657
 30
0.0
 11
1624.523389259658
 21
1011.16474812501
 31
0.0
  0
LINE
  5
481C
330
18
100
AcDbEntity
  8
A-BACKING
 62
     5
100
AcDbLine
 10
1624.073629733237
 20
1011.193754475955
 30
0.0
 11
1624.273389259659
 21
1011.309085692307
 31
0.0
  0
LINE
  5
481D
330
18
100
AcDbEntity
  8
A-BACKING
 62
     5
100
AcDbLine
 10
1623.823629733238
 20
1011.338092043252
 30
0.0
 11
1624.023389259659
 21
1011.453423259604
 31
0.0
  0
LINE
  5
481E
330
18
100
AcDbEntity
  8
A-BACKING
 62
     5
100
AcDbLine
 10
1623.573629733238
 20
1011.482429610549
 30
0.0
 11
1623.773389259659
 21
1011.597760826901
 31
0.0
  0
LINE
  5
481F
330
18
100
AcDbEntity
  8
A-BACKING
 62
     5
100
AcDbLine
 10
1623.323629733239
 20
1011.626767177846
 30
0.0
 11
1623.52338925966
 21
1011.742098394198
 31
0.0
  0
LINE
  5
4820
330
18
100
AcDbEntity
  8
A-BACKING
 62
     5
100
AcDbLine
 10
1623.073629733237
 20
1011.771104745142
 30
0.0
 11
1623.27338925966
 21
1011.886435961496
 31
0.0
  0
LINE
  5
4821
330
18
100
AcDbEntity
  8
A-BACKING
 62
     5
100
AcDbLine
 10
1622.82362973324
 20
1011.915442312441
 30
0.0
 11
1623.02338925966
 21
1012.030773528793
 31
0.0
  0
LINE
  5
4822
330
18
100
AcDbEntity
  8
A-BACKING
 62
     5
100
AcDbLine
 10
1622.57362973324
 20
1012.059779879738
 30
0.0
 11
1622.773389259661
 21
1012.17511109609
 31
0.0
  0
LINE
  5
4823
330
18
100
AcDbEntity
  8
A-BACKING
 62
     5
100
AcDbLine
 10
1622.323629733241
 20
1012.204117447035
 30
0.0
 11
1622.523389259661
 21
1012.319448663387
 31
0.0
  0
LINE
  5
4824
330
18
100
AcDbEntity
  8
A-BACKING
 62
     5
100
AcDbLine
 10
1622.073629733242
 20
1012.348455014332
 30
0.0
 11
1622.273389259662
 21
1012.463786230684
 31
0.0
  0
LINE
  5
4825
330
18
100
AcDbEntity
  8
A-BACKING
 62
     5
100
AcDbLine
 10
1621.823629733238
 20
1012.492792581628
 30
0.0
 11
1622.023389259662
 21
1012.608123797982
 31
0.0
  0
LINE
  5
4826
330
18
100
AcDbEntity
  8
A-BACKING
 62
     5
100
AcDbLine
 10
1621.57362973324
 20
1012.637130148926
 30
0.0
 11
1621.773389259663
 21
1012.752461365279
 31
0.0
  0
LINE
  5
4828
330
18
100
AcDbEntity
  8
A-BACKING
 62
     5
100
AcDbLine
 10
1621.32362973324
 20
1012.781467716223
 30
0.0
 11
1621.523389259663
 21
1012.896798932576
 31
0.0
  0
LINE
  5
4829
330
18
100
AcDbEntity
  8
A-BACKING
 62
     5
100
AcDbLine
 10
1621.073629733241
 20
1012.92580528352
 30
0.0
 11
1621.273389259663
 21
1013.041136499873
 31
0.0
  0
LINE
  5
482A
330
18
100
AcDbEntity
  8
A-BACKING
 62
     5
100
AcDbLine
 10
1620.823629733241
 20
1013.070142850817
 30
0.0
 11
1621.023389259664
 21
1013.18547406717
 31
0.0
  0
LINE
  5
482B
330
18
100
AcDbEntity
  8
A-BACKING
 62
     5
100
AcDbLine
 10
1620.573629733242
 20
1013.214480418114
 30
0.0
 11
1620.773389259664
 21
1013.329811634467
 31
0.0
  0
LINE
  5
482C
330
18
100
AcDbEntity
  8
A-BACKING
 62
     5
100
AcDbLine
 10
1620.323629733243
 20
1013.358817985412
 30
0.0
 11
1620.523389259665
 21
1013.474149201765
 31
0.0
  0
LINE
  5
4834
330
18
100
AcDbEntity
  8
A-BACKING
 62
     5
100
AcDbLine
 10
1620.073629733246
 20
1013.50315555271
 30
0.0
 11
1620.273389259666
 21
1013.618486769062
 31
0.0
  0
LINE
  5
483C
330
18
100
AcDbEntity
  8
A-BACKING
 62
     5
100
AcDbLine
 10
1619.823629733247
 20
1013.647493120008
 30
0.0
 11
1620.023389259666
 21
1013.762824336359
 31
0.0
  0
LINE
  5
4844
330
18
100
AcDbEntity
  8
A-BACKING
 62
     5
100
AcDbLine
 10
1619.573629733244
 20
1013.791830687303
 30
0.0
 11
1619.773389259666
 21
1013.907161903656
 31
0.0
  0
LINE
  5
484C
330
18
100
AcDbEntity
  8
A-BACKING
 62
     5
100
AcDbLine
 10
1619.323629733247
 20
1013.936168254603
 30
0.0
 11
1619.523389259666
 21
1014.051499470954
 31
0.0
  0
LINE
  5
4854
330
18
100
AcDbEntity
  8
A-BACKING
 62
     5
100
AcDbLine
 10
1619.073629733248
 20
1014.0805058219
 30
0.0
 11
1619.273389259667
 21
1014.195837038251
 31
0.0
  0
LINE
  5
485C
330
18
100
AcDbEntity
  8
A-BACKING
 62
     5
100
AcDbLine
 10
1618.823629733246
 20
1014.224843389196
 30
0.0
 11
1619.023389259667
 21
1014.340174605548
 31
0.0
  0
LINE
  5
4864
330
18
100
AcDbEntity
  8
A-BACKING
 62
     5
100
AcDbLine
 10
1618.573629733243
 20
1014.369180956492
 30
0.0
 11
1618.773389259667
 21
1014.484512172846
 31
0.0
  0
LINE
  5
486C
330
18
100
AcDbEntity
  8
A-BACKING
 62
     5
100
AcDbLine
 10
1618.323629733244
 20
1014.513518523789
 30
0.0
 11
1618.523389259668
 21
1014.628849740143
 31
0.0
  0
LINE
  5
4874
330
18
100
AcDbEntity
  8
A-BACKING
 62
     5
100
AcDbLine
 10
1618.073629733244
 20
1014.657856091087
 30
0.0
 11
1618.273389259667
 21
1014.773187307441
 31
0.0
  0
LINE
  5
487C
330
18
100
AcDbEntity
  8
A-BACKING
 62
     5
100
AcDbLine
 10
1617.823629733244
 20
1014.802193658384
 30
0.0
 11
1618.023389259667
 21
1014.917524874738
 31
0.0
  0
LINE
  5
4884
330
18
100
AcDbEntity
  8
A-BACKING
 62
     5
100
AcDbLine
 10
1617.573629733248
 20
1014.946531225683
 30
0.0
 11
1617.773389259668
 21
1015.061862442035
 31
0.0
  0
LINE
  5
488C
330
18
100
AcDbEntity
  8
A-BACKING
 62
     5
100
AcDbLine
 10
1617.323629733248
 20
1015.09086879298
 30
0.0
 11
1617.523389259668
 21
1015.206200009332
 31
0.0
  0
LINE
  5
4894
330
18
100
AcDbEntity
  8
A-BACKING
 62
     5
100
AcDbLine
 10
1617.073629733248
 20
1015.235206360278
 30
0.0
 11
1617.273389259669
 21
1015.350537576629
 31
0.0
  0
LINE
  5
489C
330
18
100
AcDbEntity
  8
A-BACKING
 62
     5
100
AcDbLine
 10
1616.823629733246
 20
1015.379543927574
 30
0.0
 11
1617.023389259669
 21
1015.494875143927
 31
0.0
  0
LINE
  5
48A4
330
18
100
AcDbEntity
  8
A-BACKING
 62
     5
100
AcDbLine
 10
1616.573629733247
 20
1015.523881494871
 30
0.0
 11
1616.773389259669
 21
1015.639212711224
 31
0.0
  0
LINE
  5
48AC
330
18
100
AcDbEntity
  8
A-BACKING
 62
     5
100
AcDbLine
 10
1616.323629733247
 20
1015.668219062168
 30
0.0
 11
1616.523389259669
 21
1015.783550278521
 31
0.0
  0
LINE
  5
48B4
330
18
100
AcDbEntity
  8
A-BACKING
 62
     5
100
AcDbLine
 10
1616.073629733248
 20
1015.812556629466
 30
0.0
 11
1616.273389259669
 21
1015.927887845819
 31
0.0
  0
LINE
  5
48BC
330
18
100
AcDbEntity
  8
A-BACKING
 62
     5
100
AcDbLine
 10
1615.823629733247
 20
1015.956894196764
 30
0.0
 11
1616.023389259669
 21
1016.072225413116
 31
0.0
  0
LINE
  5
48C4
330
18
100
AcDbEntity
  8
A-BACKING
 62
     5
100
AcDbLine
 10
1615.573629733248
 20
1016.101231764061
 30
0.0
 11
1615.77338925967
 21
1016.216562980414
 31
0.0
  0
LINE
  5
48CC
330
18
100
AcDbEntity
  8
A-BACKING
 62
     5
100
AcDbLine
 10
1615.323629733246
 20
1016.245569331357
 30
0.0
 11
1615.52338925967
 21
1016.360900547711
 31
0.0
  0
LINE
  5
48D4
330
18
100
AcDbEntity
  8
A-BACKING
 62
     5
100
AcDbLine
 10
1615.073629733249
 20
1016.389906898656
 30
0.0
 11
1615.27338925967
 21
1016.505238115008
 31
0.0
  0
LINE
  5
48DC
330
18
100
AcDbEntity
  8
A-BACKING
 62
     5
100
AcDbLine
 10
1614.823629733249
 20
1016.534244465953
 30
0.0
 11
1615.02338925967
 21
1016.649575682305
 31
0.0
  0
LINE
  5
48E4
330
18
100
AcDbEntity
  8
A-BACKING
 62
     5
100
AcDbLine
 10
1614.573629733249
 20
1016.678582033251
 30
0.0
 11
1614.77338925967
 21
1016.793913249603
 31
0.0
  0
LINE
  5
48EC
330
18
100
AcDbEntity
  8
A-BACKING
 62
     5
100
AcDbLine
 10
1614.32362973325
 20
1016.822919600548
 30
0.0
 11
1614.52338925967
 21
1016.9382508169
 31
0.0
  0
LINE
  5
48F4
330
18
100
AcDbEntity
  8
A-BACKING
 62
     5
100
AcDbLine
 10
1614.07362973325
 20
1016.967257167845
 30
0.0
 11
1614.27338925967
 21
1017.082588384197
 31
0.0
  0
LINE
  5
48FC
330
18
100
AcDbEntity
  8
A-BACKING
 62
     5
100
AcDbLine
 10
1613.823629733251
 20
1017.111594735143
 30
0.0
 11
1614.023389259671
 21
1017.226925951495
 31
0.0
  0
LINE
  5
4904
330
18
100
AcDbEntity
  8
A-BACKING
 62
     5
100
AcDbLine
 10
1613.573629733251
 20
1017.25593230244
 30
0.0
 11
1613.773389259671
 21
1017.371263518792
 31
0.0
  0
LINE
  5
490C
330
18
100
AcDbEntity
  8
A-BACKING
 62
     5
100
AcDbLine
 10
1613.323629733251
 20
1017.400269869738
 30
0.0
 11
1613.523389259671
 21
1017.515601086089
 31
0.0
  0
LINE
  5
4914
330
18
100
AcDbEntity
  8
A-BACKING
 62
     5
100
AcDbLine
 10
1613.073629733252
 20
1017.544607437035
 30
0.0
 11
1613.273389259671
 21
1017.659938653387
 31
0.0
  0
LINE
  5
491C
330
18
100
AcDbEntity
  8
A-BACKING
 62
     5
100
AcDbLine
 10
1612.823629733252
 20
1017.688945004332
 30
0.0
 11
1613.023389259672
 21
1017.804276220684
 31
0.0
  0
LINE
  5
4924
330
18
100
AcDbEntity
  8
A-BACKING
 62
     5
100
AcDbLine
 10
1612.573629733253
 20
1017.83328257163
 30
0.0
 11
1612.773389259672
 21
1017.948613787981
 31
0.0
  0
LINE
  5
492C
330
18
100
AcDbEntity
  8
A-BACKING
 62
     5
100
AcDbLine
 10
1612.323629733253
 20
1017.977620138927
 30
0.0
 11
1612.523389259672
 21
1018.092951355279
 31
0.0
  0
LINE
  5
4934
330
18
100
AcDbEntity
  8
A-BACKING
 62
     5
100
AcDbLine
 10
1612.073629733251
 20
1018.121957706223
 30
0.0
 11
1612.273389259672
 21
1018.237288922576
 31
0.0
  0
LINE
  5
493C
330
18
100
AcDbEntity
  8
A-BACKING
 62
     5
100
AcDbLine
 10
1611.823629733254
 20
1018.266295273522
 30
0.0
 11
1612.023389259673
 21
1018.381626489873
 31
0.0
  0
LINE
  5
4944
330
18
100
AcDbEntity
  8
A-BACKING
 62
     5
100
AcDbLine
 10
1611.573629733254
 20
1018.41063284082
 30
0.0
 11
1611.773389259672
 21
1018.525964057171
 31
0.0
  0
LINE
  5
494C
330
18
100
AcDbEntity
  8
A-BACKING
 62
     5
100
AcDbLine
 10
1611.323629733255
 20
1018.554970408117
 30
0.0
 11
1611.523389259673
 21
1018.670301624468
 31
0.0
  0
LINE
  5
4954
330
18
100
AcDbEntity
  8
A-BACKING
 62
     5
100
AcDbLine
 10
1611.073629733255
 20
1018.699307975414
 30
0.0
 11
1611.273389259673
 21
1018.814639191765
 31
0.0
  0
LINE
  5
495C
330
18
100
AcDbEntity
  8
A-BACKING
 62
     5
100
AcDbLine
 10
1610.823629733256
 20
1018.843645542712
 30
0.0
 11
1611.023389259673
 21
1018.958976759062
 31
0.0
  0
LINE
  5
4964
330
18
100
AcDbEntity
  8
A-BACKING
 62
     5
100
AcDbLine
 10
1610.573629733256
 20
1018.987983110009
 30
0.0
 11
1610.773389259673
 21
1019.10331432636
 31
0.0
  0
LWPOLYLINE
  5
4994
330
18
100
AcDbEntity
  8
A-MTL_GRID
 62
     5
100
AcDbPolyline
 90
        2
 70
     0
 43
0.0
 10
1621.903969026772
 20
1011.991901858824
 10
1621.579209500353
 20
1012.180511539238
  0
LWPOLYLINE
  5
4995
330
18
100
AcDbEntity
  8
A-MTL_GRID
 62
     5
100
AcDbPolyline
 90
        4
 70
     0
 43
0.0
 10
1621.903969026772
 20
1011.991901858824
 10
1621.82356705217
 20
1012.015708725901
 42
-0.0761828390296885
 10
1621.624381598592
 20
1012.109468003512
 42
-0.2091861054933992
 10
1621.579209500353
 20
1012.180511539238
 42
12.96733111995141
  0
LWPOLYLINE
  5
4996
330
18
100
AcDbEntity
  8
A-MTL_GRID
 62
     5
100
AcDbPolyline
 90
        3
 70
     0
 43
0.0
 10
1621.720402901404
 20
1012.055001108033
 10
1621.806246452418
 20
1011.995514422151
 42
-0.0298431965792944
 10
1621.88707529238
 20
1011.932046671576
 42
2.222930909368133
  0
LWPOLYLINE
  5
4997
330
18
100
AcDbEntity
  8
A-MTL_GRID
 62
     5
100
AcDbPolyline
 90
        2
 70
     0
 43
0.0
 10
1620.496677745622
 20
1009.804401858825
 10
1620.171918219203
 20
1009.993011539239
  0
LWPOLYLINE
  5
4998
330
18
100
AcDbEntity
  8
A-MTL_GRID
 62
     5
100
AcDbPolyline
 90
        4
 70
     0
 43
0.0
 10
1620.496677745622
 20
1009.804401858825
 10
1620.416275771021
 20
1009.828208725902
 42
-0.0761828390296885
 10
1620.217090317442
 20
1009.921968003512
 42
-0.2091861054933992
 10
1620.171918219203
 20
1009.993011539239
 42
12.96733111995141
  0
LWPOLYLINE
  5
4999
330
18
100
AcDbEntity
  8
A-MTL_GRID
 62
     5
100
AcDbPolyline
 90
        3
 70
     0
 43
0.0
 10
1620.313111620255
 20
1009.867501108034
 10
1620.398955171268
 20
1009.808014422152
 42
-0.0298431965792944
 10
1620.479784011231
 20
1009.744546671577
 42
2.222930909368133
  0
LWPOLYLINE
  5
499A
330
18
100
AcDbEntity
  8
A-MTL_GRID
 62
     5
100
AcDbPolyline
 90
        2
 70
     0
 43
0.0
 10
1623.311260307922
 20
1008.179401858825
 10
1622.986500781503
 20
1008.368011539239
  0
LWPOLYLINE
  5
499B
330
18
100
AcDbEntity
  8
A-MTL_GRID
 62
     5
100
AcDbPolyline
 90
        4
 70
     0
 43
0.0
 10
1623.311260307922
 20
1008.179401858825
 10
1623.230858333321
 20
1008.203208725902
 42
-0.0761828390296885
 10
1623.031672879742
 20
1008.296968003513
 42
-0.2091861054933992
 10
1622.986500781503
 20
1008.368011539239
 42
12.96733111995141
  0
LWPOLYLINE
  5
499C
330
18
100
AcDbEntity
  8
A-MTL_GRID
 62
     5
100
AcDbPolyline
 90
        3
 70
     0
 43
0.0
 10
1623.127694182554
 20
1008.242501108034
 10
1623.213537733568
 20
1008.183014422152
 42
-0.0298431965792944
 10
1623.294366573531
 20
1008.119546671577
 42
2.222930909368133
  0
LWPOLYLINE
  5
499D
330
18
100
AcDbEntity
  8
A-MTL_GRID
 62
     5
100
AcDbPolyline
 90
        2
 70
     0
 43
0.0
 10
1621.903969026772
 20
1006.116901858825
 10
1621.579209500353
 20
1006.305511539239
  0
LWPOLYLINE
  5
499E
330
18
100
AcDbEntity
  8
A-MTL_GRID
 62
     5
100
AcDbPolyline
 90
        4
 70
     0
 43
0.0
 10
1621.903969026772
 20
1006.116901858825
 10
1621.823567052171
 20
1006.140708725902
 42
-0.0761828390296885
 10
1621.624381598592
 20
1006.234468003512
 42
-0.2091861054933992
 10
1621.579209500353
 20
1006.305511539239
 42
12.96733111995141
  0
LWPOLYLINE
  5
499F
330
18
100
AcDbEntity
  8
A-MTL_GRID
 62
     5
100
AcDbPolyline
 90
        3
 70
     0
 43
0.0
 10
1621.720402901404
 20
1006.180001108034
 10
1621.806246452418
 20
1006.120514422152
 42
-0.0298431965792944
 10
1621.887075292381
 20
1006.057046671577
 42
2.222930909368133
  0
LWPOLYLINE
  5
49A3
330
18
100
AcDbEntity
  8
A-MTL_GRID
 62
     5
100
AcDbPolyline
 90
        2
 70
     0
 43
0.0
 10
1620.496677745622
 20
1004.054401858825
 10
1620.171918219203
 20
1004.243011539238
  0
LWPOLYLINE
  5
49A4
330
18
100
AcDbEntity
  8
A-MTL_GRID
 62
     5
100
AcDbPolyline
 90
        4
 70
     0
 43
0.0
 10
1620.496677745622
 20
1004.054401858825
 10
1620.416275771021
 20
1004.078208725902
 42
-0.0761828390296885
 10
1620.217090317442
 20
1004.171968003512
 42
-0.2091861054933992
 10
1620.171918219203
 20
1004.243011539238
 42
12.96733111995141
  0
LWPOLYLINE
  5
49A5
330
18
100
AcDbEntity
  8
A-MTL_GRID
 62
     5
100
AcDbPolyline
 90
        3
 70
     0
 43
0.0
 10
1620.313111620255
 20
1004.117501108033
 10
1620.398955171268
 20
1004.058014422152
 42
-0.0298431965792944
 10
1620.479784011231
 20
1003.994546671577
 42
2.222930909368133
  0
LWPOLYLINE
  5
49A6
330
18
100
AcDbEntity
  8
A-MTL_GRID
 62
     5
100
AcDbPolyline
 90
        2
 70
     0
 43
0.0
 10
1623.311260307922
 20
1002.429401858825
 10
1622.986500781503
 20
1002.618011539239
  0
LWPOLYLINE
  5
49A7
330
18
100
AcDbEntity
  8
A-MTL_GRID
 62
     5
100
AcDbPolyline
 90
        4
 70
     0
 43
0.0
 10
1623.311260307922
 20
1002.429401858825
 10
1623.230858333321
 20
1002.453208725902
 42
-0.0761828390296885
 10
1623.031672879742
 20
1002.546968003512
 42
-0.2091861054933992
 10
1622.986500781503
 20
1002.618011539239
 42
12.96733111995141
  0
LWPOLYLINE
  5
49A8
330
18
100
AcDbEntity
  8
A-MTL_GRID
 62
     5
100
AcDbPolyline
 90
        3
 70
     0
 43
0.0
 10
1623.127694182554
 20
1002.492501108034
 10
1623.213537733568
 20
1002.433014422152
 42
-0.0298431965792944
 10
1623.294366573531
 20
1002.369546671577
 42
2.222930909368133
  0
MTEXT
  5
4A3F
330
18
100
AcDbEntity
  8
A-MTL_GRID
100
AcDbMText
 10
1625.876667322475
 20
1014.697671962333
 30
0.0
 40
0.375
 41
1.70383112455238
 71
     1
 72
     1
  1
\A1;
  7
ROMANS
  0
LWPOLYLINE
  5
4A5B
330
18
100
AcDbEntity
  8
A-NOTE
100
AcDbPolyline
 90
        3
 70
     0
 43
0.0
 10
1623.413470303396
 20
1008.738351901061
 10
1625.84112842907
 20
1014.560679656034
 10
1626.803819802243
 20
1014.560679656034
  0
LEADER
  5
4A85
330
18
100
AcDbEntity
  8
A-NOTE
100
AcDbLeader
  3
DIM-1
 76
     3
 10
1616.124697736399
 20
1015.345367938491
 30
0.0
 10
1618.401838593173
 20
1020.747577566907
 30
0.0
 10
1619.364529966347
 20
1020.747577566907
 30
0.0
 77
   256
1001
ACAD
1000
DSTYLE
1002
{
1070
   341
1005
0
1070
     6
1000

1070
   147
1040
0.0625
1070
    77
1070
     0
1002
}
  0
LEADER
  5
4A86
330
18
100
AcDbEntity
  8
A-NOTE
100
AcDbLeader
  3
DIM-1
 76
     3
 10
1619.908392160504
 20
1012.342701946579
 30
0.0
 10
1622.255473300612
 20
1017.997504705505
 30
0.0
 10
1623.115444246765
 20
1017.997504705505
 30
0.0
 77
   256
1001
ACAD
1000
DSTYLE
1002
{
1070
   341
1005
0
1070
     6
1000

1070
   147
1040
0.0625
1070
    77
1070
     0
1002
}
  0
CIRCLE
  5
4A88
330
18
100
AcDbEntity
  8
A-NOTE
100
AcDbCircle
 10
1623.295233559242
 20
1008.442640689044
 30
0.0
 40
0.3184729950571636
  0
LEADER
  5
4AA2
330
18
100
AcDbEntity
  8
A-NOTE
100
AcDbLeader
  3
DIM-1
 76
     3
 10
1628.973758670911
 20
998.2411221028174
 30
0.0
 10
1626.778914286252
 20
992.9771587615611
 30
0.0
 10
1625.067024447216
 20
992.977158761561
 30
0.0
 77
   256
1001
ACAD
1000
DSTYLE
1002
{
1070
   341
1005
0
1070
     6
1000

1070
   147
1040
0.0625
1070
    77
1070
     0
1002
}
  0
LEADER
  5
4AA3
330
18
100
AcDbEntity
  8
A-NOTE
100
AcDbLeader
  3
DIM-1
 76
     3
 10
1627.680714037137
 20
998.6172817350525
 30
0.0
 10
1626.247252602583
 20
995.1731896755392
 30
0.0
 10
1624.840216830268
 20
995.1731896755391
 30
0.0
 77
   256
1001
ACAD
1000
DSTYLE
1002
{
1070
   341
1005
0
1070
     6
1000

1070
   147
1040
0.0625
1070
    77
1070
     0
1002
}
  0
LEADER
  5
4AA4
330
18
100
AcDbEntity
  8
A-NOTE
100
AcDbLeader
  3
DIM-1
 76
     3
 10
1626.315310600521
 20
999.1671724067855
 30
0.0
 10
1625.502926245446
 20
997.3160921562986
 30
0.0
 10
1622.798954625556
 20
997.3160921562985
 30
0.0
 77
   256
1001
ACAD
1000
DSTYLE
1002
{
1070
   341
1005
0
1070
     6
1000

1070
   147
1040
0.0625
1070
    77
1070
     0
1002
}
  0
LEADER
  5
4AA6
330
18
100
AcDbEntity
  8
A-NOTE
100
AcDbLeader
  3
DIM-1
 76
     3
 10
1619.52356190666
 20
1002.235721300023
 30
0.0
 10
1618.711177551585
 20
1000.384641049536
 30
0.0
 10
1614.744135705066
 20
1000.384641049536
 30
0.0
 77
   256
1001
ACAD
1000
DSTYLE
1002
{
1070
   341
1005
0
1070
     6
1000

1070
   147
1040
0.0625
1070
    77
1070
     0
1002
}
  0
LEADER
  5
4AA7
330
18
100
AcDbEntity
  8
A-NOTE
100
AcDbLeader
  3
DIM-1
 76
     3
 10
1616.554102383924
 20
1004.659127938998
 30
0.0
 10
1615.741718028849
 20
1002.808047688511
 30
0.0
 10
1615.074203313754
 20
1002.808047688511
 30
0.0
 77
   256
1001
ACAD
1000
DSTYLE
1002
{
1070
   341
1005
0
1070
     6
1000

1070
   147
1040
0.0625
1070
    77
1070
     0
1002
}
  0
VIEWPORT
  5
172
102
{ACAD_XDICTIONARY
360
4B77
102
}
330
15
100
AcDbEntity
 67
     1
  8
0
100
AcDbViewport
 10
4.250000019790606
 20
5.500000025611369
 30
0.0
 40
23.17521074109389
 41
11.08695116230165
 68
     1
 69
     1
1001
ACAD
1000
MVIEW
1002
{
1070
    16
1010
0.0
1020
0.0
1030
0.0
1010
0.0
1020
0.0
1030
1.0
1040
0.0
1040
11.08695116230165
1040
4.250000019790606
1040
5.500000025611369
1040
50.0
1040
0.0
1040
0.0
1070
     0
1070
  1000
1070
     0
1070
     1
1070
     0
1070
     0
1070
     0
1070
     0
1040
0.0
1040
0.0
1040
0.0
1040
0.5
1040
0.5
1040
0.5
1040
0.5
1070
     0
1002
{
1002
}
1002
}
  0
IMAGE
  5
3700
330
15
100
AcDbEntity
 67
     1
  8
A-TITLE
 92
        8
310
0800000000000000
100
AcDbRasterImage
 90
        0
 10
6.612087911465813
 20
0.4412436629029195
 30
0.0
 11
0.001258057909869868
 21
0.0
 31
0.0
 12
7.703382962320721E-20
 22
0.001258057909869869
 32
0.0
 13
1251.0
 23
634.0
340
36FE
 70
     7
280
     0
281
    50
282
    50
283
     0
360
36FF
 71
     1
 91
        2
 14
-0.5
 24
-0.5
 14
1250.5
 24
633.5
  0
TEXT
  5
3762
330
15
100
AcDbEntity
 67
     1
  8
A-NOTE
100
AcDbText
 10
5.92314221701778
 20
-21.15311670196458
 30
0.0
 40
0.25
  1

 50
270.0
  7
ROMANT
100
AcDbText
  0
LWPOLYLINE
  5
3763
330
15
100
AcDbEntity
 67
     1
  8
DEFPOINTS
100
AcDbPolyline
 90
        4
 70
     1
 43
0.0
 10
-0.0000000000000002
 20
0.0
 10
8.5
 20
-0.0000000000000053
 10
8.500000000000002
 20
10.99999999999999
 10
0.0000000000000036
 20
11.0
  0
LWPOLYLINE
  5
3764
330
15
100
AcDbEntity
 67
     1
  8
A1
100
AcDbPolyline
 90
        4
 70
     1
 43
0.0
 10
0.2499999999999998
 20
0.375
 10
8.25
 20
0.3749999999999947
 10
8.250000000000002
 20
10.62499999999999
 10
0.2500000000000035
 20
10.625
  0
LINE
  5
3774
330
15
100
AcDbEntity
 67
     1
  8
A1
100
AcDbLine
 10
8.25
 20
1.313363193949991
 30
0.0
 11
0.25
 21
1.313363193949996
 31
0.0
  0
LINE
  5
377A
330
15
100
AcDbEntity
 67
     1
  8
A1
100
AcDbLine
 10
6.499153996313808
 20
0.3749999999999947
 30
0.0
 11
6.499153996313808
 21
1.313363193949992
 31
0.0
  0
VIEWPORT
  5
3792
102
{ACAD_XDICTIONARY
360
3793
102
}
330
15
100
AcDbEntity
 67
     1
  8
DEFPOINTS
100
AcDbViewport
 10
4.25
 20
5.969181596974989
 30
0.0
 40
8.0
 41
9.311636806049997
 68
     2
 69
     2
1001
ACAD
1000
MVIEW
1002
{
1070
    16
1010
0.0
1020
0.0
1030
0.0
1010
0.0
1020
0.0
1030
1.0
1040
0.0
1040
37.2465475271634
1040
1623.57376782705
1040
1005.557964089715
1040
50.0
1040
0.0
1040
0.0
1070
     0
1070
  5000
1070
     0
1070
     0
1070
     0
1070
     0
1070
     0
1070
     0
1040
0.0
1040
0.0
1040
0.0
1040
2.0
1040
2.0
1040
0.5
1040
0.5
1070
     0
1002
{
1002
}
1002
}
  0
LINE
  5
3B7A
330
15
100
AcDbEntity
 67
     1
  8
A1
100
AcDbLine
 10
0.2499999999999998
 20
0.708
 30
0.0
 11
6.499153996313808
 21
0.708
 31
0.0
  0
LINE
  5
3B7B
330
15
100
AcDbEntity
 67
     1
  8
A1
100
AcDbLine
 10
0.2499999999999998
 20
0.9159999999999999
 30
0.0
 11
6.499153996313808
 21
0.9159999999999999
 31
0.0
  0
LINE
  5
3B7C
330
15
100
AcDbEntity
 67
     1
  8
A1
100
AcDbLine
 10
3.374576998156903
 20
0.708
 30
0.0
 11
3.374576998156904
 21
0.3749999999999979
 31
0.0
  0
MTEXT
  5
3B7D
330
15
100
AcDbEntity
 67
     1
  8
A-NOTE
100
AcDbMText
 10
0.3006998111790509
 20
1.221361811478049
 30
0.0
 40
0.1875
 41
5.48741680826955
 71
     1
 72
     5
  1
BASE DETAIL FOR BRICK VENEER
  7
A
  0
MTEXT
  5
3B82
330
15
100
AcDbEntity
 67
     1
  8
A-NOTE
100
AcDbMText
 10
0.3082078248633806
 20
0.6534990150487534
 30
0.0
 40
0.1875
 41
5.48741680826955
 71
     1
 72
     5
  1
MOD4883-A3
  7
A
  0
MTEXT
  5
3B83
330
15
100
AcDbEntity
 67
     1
  8
A-NOTE
100
AcDbMText
 10
4.672633056487534
 20
0.6201147220973109
 30
0.0
 40
0.125
 41
1.408208086233465
 71
     1
 72
     5
  1
09062-MOD4883-A1-PG003
  7
A
  0
TEXT
  5
3B84
330
15
100
AcDbEntity
 67
     1
  8
A-NOTE
100
AcDbText
 10
0.2929968548725714
 20
0.7797463152543971
 30
0.0
 40
0.078125
  1
Scale: 3" = 1'-0"
  7
A
 11
0.2929968548725714
 21
0.8188088152543971
 31
0.0
100
AcDbText
 73
     2
  0
TEXT
  5
3B85
330
15
100
AcDbEntity
 67
     1
  8
A-NOTE
100
AcDbText
 10
5.551176212856541
 20
0.7797463152543971
 30
0.0
 40
0.078125
  1
Date: 11-20-2009
  7
A
 11
5.551176212856541
 21
0.8188088152543971
 31
0.0
100
AcDbText
 73
     2
  0
ENDSEC
  0
SECTION
  2
OBJECTS
  0
DICTIONARY
  5
C
330
0
100
AcDbDictionary
  3
ABNSLEADERTOOLS
350
A04
  3
ACAD_COLOR
350
2069
  3
ACAD_GROUP
350
D
  3
ACAD_IMAGE_DICT
350
36F7
  3
ACAD_IMAGE_VARS
350
36F8
  3
ACAD_LAYOUT
350
B15
  3
ACAD_MATERIAL
350
203F
  3
ACAD_MLEADERSTYLE
350
208E
  3
ACAD_MLINESTYLE
350
1B
  3
ACAD_PLOTSETTINGS
350
B16
  3
ACAD_SCALELIST
350
206C
  3
ACAD_VISUALSTYLE
350
2058
  3
ACADDIM
350
4A87
  3
ACDB_RECOMPOSE_DATA
350
209C
  3
ACDBHEADERROUNDTRIPXREC
350
4BF1
  3
ACDBVARIABLEDICTIONARY
350
B76
  3
AEC_PROPERTY_SET_DEFS
350
CAB
  3
BNS_SELSET
350
102
  3
BNS_VARIABLES
350
21A
  3
DWGPROPS
350
4C15
  0
DICTIONARY
  5
4C16
330
8
100
AcDbDictionary
280
     1
  3
ACAD_XREC_ROUNDTRIP
360
4C17
  0
DICTIONARY
  5
C90
330
2
100
AcDbDictionary
280
     1
  3
ACAD_LAYERFILTERS
360
4B35
  3
ACAD_LAYERSTATES
360
156B
  3
ACLYDICTIONARY
360
4B34
  0
DICTIONARY
  5
2283
330
18
100
AcDbDictionary
280
     1
  3
ACAD_SORTENTS
360
2284
  0
DICTIONARY
  5
378F
330
15
100
AcDbDictionary
280
     1
  3
ACAD_SORTENTS
360
3790
  0
DICTIONARY
  5
4B77
330
172
100
AcDbDictionary
280
     1
  3
ACAD_XREC_ROUNDTRIP
360
4B78
  0
IMAGEDEF_REACTOR
  5
36FF
330
3700
100
AcDbRasterImageDefReactor
 90
        2
330
3700
  0
DICTIONARY
  5
3793
330
3792
100
AcDbDictionary
280
     1
  3
ACAD_XREC_ROUNDTRIP
360
4B88
  3
ASDK_XREC_ANNOTATION_SCALE_INFO
360
3794
  0
XRECORD
  5
A04
102
{ACAD_REACTORS
330
C
102
}
330
C
100
AcDbXrecord
1001
AbnsLeaderTools
1071
 97072200
1070
     0
1070
     0
1070
     0
1070
     0
1070
     1
1070
     3
1070
     1
1070
     3
1070
     0
1070
     0
1070
     0
1070
     0
1071
        0
  0
DICTIONARY
  5
2069
102
{ACAD_REACTORS
330
C
102
}
330
C
100
AcDbDictionary
  0
DICTIONARY
  5
D
102
{ACAD_REACTORS
330
C
102
}
330
C
100
AcDbDictionary
  0
DICTIONARY
  5
36F7
102
{ACAD_REACTORS
330
C
102
}
330
C
100
AcDbDictionary
  3
BRICK-IT_LOGO
350
36FE
  0
RASTERVARIABLES
  5
36F8
102
{ACAD_REACTORS
330
C
102
}
330
C
100
AcDbRasterVariables
 90
        0
 70
     0
 71
     1
 72
     5
  0
DICTIONARY
  5
B15
102
{ACAD_REACTORS
330
C
102
}
330
C
100
AcDbDictionary
  0
DICTIONARY
  5
203F
102
{ACAD_REACTORS
330
C
102
}
330
C
100
AcDbDictionary
  3
BYBLOCK
350
2048
  3
BYLAYER
350
2040
  3
GLOBAL
350
2050
  0
DICTIONARY
  5
208E
102
{ACAD_REACTORS
330
C
102
}
330
C
100
AcDbDictionary
  3
STANDARD
350
208F
  0
DICTIONARY
  5
1B
102
{ACAD_REACTORS
330
C
102
}
330
C
100
AcDbDictionary
  3
STANDARD
350
1C
  0
DICTIONARY
  5
B16
102
{ACAD_REACTORS
330
C
102
}
330
C
100
AcDbDictionary
  3
8.5X11
350
2B7E
  3
PDF2436
350
270F
  3
PLOT2436
350
26FD
  3
PRINT11X17
350
2720
  0
DICTIONARY
  5
206C
102
{ACAD_REACTORS
330
C
102
}
330
C
100
AcDbDictionary
  3
*A1
350
3E35
  3
*A10
350
3E42
  3
*A11
350
3E43
  3
*A12
350
3E59
  3
*A13
350
3E44
  3
*A14
350
3E36
  3
*A15
350
3E45
  3
*A16
350
3E54
  3
*A17
350
3E48
  3
*A18
350
3E49
  3
*A19
350
3E4A
  3
*A2
350
3E3A
  3
*A20
350
3E4B
  3
*A21
350
3E3E
  3
*A22
350
3E4C
  3
*A23
350
3E5A
  3
*A24
350
3E4F
  3
*A25
350
3E50
  3
*A26
350
3E51
  3
*A27
350
3E37
  3
*A28
350
3E46
  3
*A29
350
3E52
  3
*A3
350
3E3B
  3
*A30
350
3E55
  3
*A31
350
3E56
  3
*A32
350
3E57
  3
*A33
350
3E3F
  3
*A34
350
3E4D
  3
*A35
350
3E58
  3
*A36
350
3E5B
  3
*A37
350
3E38
  3
*A38
350
3E5C
  3
*A39
350
3E47
  3
*A4
350
3E53
  3
*A40
350
3E39
  3
*A5
350
3E3C
  3
*A6
350
3E40
  3
*A7
350
3E3D
  3
*A8
350
3E4E
  3
*A9
350
3E41
  3
A0
350
206D
  3
A1
350
206E
  3
A2
350
206F
  3
A3
350
2070
  3
A4
350
2071
  3
A5
350
2072
  3
A6
350
2073
  3
A7
350
2074
  3
A8
350
2075
  3
A9
350
2076
  3
B0
350
2077
  3
B1
350
2078
  3
B2
350
2079
  3
B3
350
207A
  3
B4
350
207B
  3
B5
350
207C
  3
B6
350
207D
  3
B7
350
207E
  3
B8
350
207F
  3
B9
350
2080
  3
C0
350
2081
  3
C1
350
2082
  3
C2
350
2083
  3
C3
350
2084
  3
C4
350
2085
  3
C5
350
2086
  3
C6
350
2087
  3
C7
350
2088
  3
C8
350
2089
  3
C9
350
208A
  3
D0
350
208B
  3
D1
350
208C
  3
D2
350
208D
  0
DICTIONARY
  5
2058
102
{ACAD_REACTORS
330
C
102
}
330
C
100
AcDbDictionary
  3
2DWIREFRAME
350
205E
  3
3D_HIDDEN
350
2060
  3
3DWIREFRAME
350
205F
  3
BASIC
350
205D
  3
BRIGHTEN
350
2064
  3
COLORCHANGE
350
2068
  3
CONCEPTUAL
350
2061
  3
DIM
350
2063
  3
FACEPATTERN
350
2067
  3
FLAT
350
2059
  3
FLATWITHEDGES
350
205A
  3
GOURAUD
350
205B
  3
GOURAUDWITHEDGES
350
205C
  3
LINEPATTERN
350
2066
  3
REALISTIC
350
2062
  3
THICKEN
350
2065
  0
XRECORD
  5
4A87
102
{ACAD_REACTORS
330
C
102
}
330
C
100
AcDbXrecord
 90
   990106
  3

 60
     4
 61
     0
 62
     1
 63
     3
 64
     0
 65
     0
 66
     0
 67
     3
 68
     1
 69
     0
 70
     0
 71
     0
 72
     0
 40
1.70383112455238
170
     0
340
4A3F
  0
XRECORD
  5
209C
102
{ACAD_REACTORS
330
C
102
}
330
C
100
AcDbXrecord
 90
        1
330
206B
  0
DICTIONARY
  5
4BF1
102
{ACAD_REACTORS
330
C
102
}
330
C
100
AcDbDictionary
  3
CEPSNTYPE
350
4BFA
  3
COLORDICT
350
4C13
  3
DIMSTYLEDATA
350
4C10
  3
FINGERPRINTGUID
350
4BFB
  3
HYPERLINKBASE
350
4BF4
  3
INSUNITS
350
4BF9
  3
LAYOUTDICT
350
4BF6
  3
LWETCUNION
350
4BF8
  3
MATERIALDICT
350
4C14
  3
PLOTSETDICT
350
4BF7
  3
PSVPSCALE
350
4BFD
  3
PUCSBASE
350
4C00
  3
PUCSORGBACK
350
4C06
  3
PUCSORGBOTTOM
350
4C02
  3
PUCSORGFRONT
350
4C05
  3
PUCSORGLEFT
350
4C03
  3
PUCSORGRIGHT
350
4C04
  3
PUCSORGTOP
350
4C01
  3
PUCSORTHOREF
350
4BFE
  3
PUCSORTHOVIEW
350
4BFF
  3
STYLESHEET
350
4BF5
  3
TSTACKALIGN
350
4BF2
  3
TSTACKSIZE
350
4BF3
  3
UCSBASE
350
4C09
  3
UCSORGBACK
350
4C0F
  3
UCSORGBOTTOM
350
4C0B
  3
UCSORGFRONT
350
4C0E
  3
UCSORGLEFT
350
4C0C
  3
UCSORGRIGHT
350
4C0D
  3
UCSORGTOP
350
4C0A
  3
UCSORTHOREF
350
4C07
  3
UCSORTHOVIEW
350
4C08
  3
VERSIONGUID
350
4BFC
  0
DICTIONARY
  5
B76
102
{ACAD_REACTORS
330
C
102
}
330
C
100
AcDbDictionary
  3
CANNOSCALE
350
4C12
  3
CMLEADERSTYLE
350
209E
  3
DIMASSOC
350
B77
  3
HIDETEXT
350
4BAB
  3
INDEXCTL
350
226D
  3
LAYEREVAL
350
20A2
  3
LIGHTINGUNITS
350
20A1
  3
MSLTSCALE
350
209F
  3
SORTENTS
350
226C
  0
DICTIONARY
  5
CAB
102
{ACAD_REACTORS
330
C
102
}
330
C
100
AcDbDictionary
  0
DICTIONARY
  5
102
102
{ACAD_REACTORS
330
C
102
}
330
C
100
AcDbDictionary
  3
BNS_SS01
350
986
  3
BNS_SS02
350
987
  0
DICTIONARY
  5
21A
102
{ACAD_REACTORS
330
C
102
}
330
C
100
AcDbDictionary
  3
BNS_EDITTIME_TOTAL
350
B10
  0
XRECORD
  5
4C15
102
{ACAD_REACTORS
330
C
102
}
330
C
100
AcDbXrecord
  1
DWGPROPS COOKIE
  2

  3

  4

  6

  7

  8
ed
  9

300
=
301
=
302
=
303
=
304
=
305
=
306
=
307
=
308
=
309
=
 40
0.0
 41
2455134.618031493
 42
2455169.856109479
  1

 90
        0
  0
XRECORD
  5
4C17
102
{ACAD_REACTORS
330
4C16
102
}
330
4C16
100
AcDbXrecord
102
VTR_0.000_0.000_1.000_1.000_VISUALSTYLE
340
205E
102
VTR_0.000_0.000_1.000_1.000_GRIDDISPLAY
 70
     3
102
VTR_0.000_0.000_1.000_1.000_GRIDMAJOR
 70
     5
102
VTR_0.000_0.000_1.000_1.000_DEFAULTLIGHTING
280
     1
102
VTR_0.000_0.000_1.000_1.000_DEFAULTLIGHTINGTYPE
 70
     1
102
VTR_0.000_0.000_1.000_1.000_BRIGHTNESS
141
0.0
102
VTR_0.000_0.000_1.000_1.000_CONTRAST
142
0.0
  0
DICTIONARY
  5
4B35
102
{ACAD_REACTORS
330
C90
102
}
330
C90
100
AcDbDictionary
  0
DICTIONARY
  5
156B
102
{ACAD_REACTORS
330
C90
102
}
330
C90
100
AcDbDictionary
  3
_LAYISO_STATE
350
4B18
1001
ACLAYERTOOLS
1000
B17
1000
0
  0
DICTIONARY
  5
4B34
102
{ACAD_REACTORS
330
C90
102
}
330
C90
100
AcDbDictionary
1001
ACAD
1000
<All
  0
SORTENTSTABLE
  5
2284
102
{ACAD_REACTORS
330
2283
102
}
330
2283
100
AcDbSortentsTable
330
18
331
2C61
  5
3FAD
331
3FA9
  5
3FAE
331
3FAA
  5
3FAF
331
3FAB
  5
3FB0
331
3FAC
  5
3FB1
331
3FAD
  5
3FB2
331
3FAE
  5
3FB3
331
3FAF
  5
3FB4
331
3FB0
  5
3FB5
331
3FB1
  5
3FB6
331
3FB2
  5
3FB7
331
3FB3
  5
3FB8
331
3FB4
  5
3FB9
331
3FB5
  5
3FBA
331
3FB6
  5
3FBB
331
3FB7
  5
3FBC
331
3FB8
  5
3FBD
331
3FB9
  5
3FBE
331
3FBA
  5
3FBF
331
3FBB
  5
3FC0
331
3FBC
  5
3FC1
331
3FBD
  5
3FC2
331
3FBE
  5
3FC3
331
3FBF
  5
3FC4
331
3FC0
  5
3FC5
331
3FC1
  5
3FC6
331
3FC2
  5
3FC7
331
3FC3
  5
3FC8
331
3FC4
  5
3FC9
331
3FC5
  5
3FCA
331
3FC6
  5
3FD0
331
3FC8
  5
3FDA
331
3FC9
  5
3FDB
331
3FCA
  5
3FDC
331
3FCB
  5
3FDD
331
3FCC
  5
3FDE
331
3FD6
  5
4008
331
3FD7
  5
400B
331
3FD8
  5
4010
331
3FD9
  5
4013
331
3FDA
  5
4015
331
4001
  5
4017
331
400A
  5
4018
331
400B
  5
4019
331
400C
  5
401A
331
400D
  5
401B
331
400E
  5
401C
331
400F
  5
401D
331
4010
  5
401E
331
4011
  5
401F
331
4012
  5
4020
331
4013
  5
4021
331
4018
  5
4026
331
4019
  5
4027
331
4023
  5
4058
331
4024
  5
4059
331
4025
  5
405A
331
4026
  5
405B
331
4027
  5
405C
331
4028
  5
405D
331
4029
  5
4060
331
4044
  5
4061
331
4045
  5
4062
331
4052
  5
4063
331
4053
  5
4064
331
4054
  5
4065
331
4055
  5
4066
331
4056
  5
4067
331
4057
  5
4068
331
4058
  5
4069
331
4059
  5
406E
331
405A
  5
406F
331
405B
  5
4072
331
4060
  5
4073
331
4061
  5
4074
331
4062
  5
4075
331
4063
  5
4076
331
4064
  5
4077
331
4065
  5
4078
331
4068
  5
4079
331
4069
  5
407A
331
406A
  5
407B
331
406B
  5
407C
331
406C
  5
407D
331
406D
  5
407E
331
406E
  5
4080
331
406F
  5
4081
331
4070
  5
4085
331
4071
  5
4086
331
4072
  5
4087
331
4073
  5
4088
331
4074
  5
4089
331
4075
  5
408A
331
4076
  5
408B
331
4077
  5
408C
331
4078
  5
408D
331
4079
  5
408E
331
407A
  5
408F
331
407B
  5
4090
331
407C
  5
4098
331
4080
  5
4099
331
4081
  5
409E
331
4082
  5
40A1
331
4090
  5
40A7
331
4095
  5
40A8
331
4096
  5
40A9
331
4097
  5
40AA
331
4098
  5
40AB
331
4099
  5
40AC
331
409A
  5
40AD
331
409B
  5
40AE
331
409C
  5
40B0
331
409D
  5
40B1
331
409E
  5
40B2
331
409F
  5
40B3
331
40A0
  5
40B4
331
40A1
  5
40B5
331
40A2
  5
40B6
331
40A3
  5
40B7
331
40A4
  5
40B8
331
40A5
  5
40B9
331
40A6
  5
40BA
331
40A7
  5
40BB
331
40A8
  5
40BC
331
40A9
  5
40BD
331
40AA
  5
40BE
331
40AB
  5
40BF
331
40AC
  5
40C0
331
40AD
  5
40C1
331
40AE
  5
40C2
331
40AF
  5
40C3
331
40B0
  5
40C4
331
40B1
  5
40C5
331
40B2
  5
40C6
331
40B3
  5
40C7
331
40B4
  5
40C8
331
40B5
  5
40C9
331
40B6
  5
40CA
331
40B7
  5
40CB
331
40B8
  5
40CC
331
40B9
  5
40CD
331
40BA
  5
40CE
331
40BB
  5
40CF
331
40BC
  5
40D0
331
40BD
  5
40D1
331
40BE
  5
40D2
331
40BF
  5
40D3
331
40C0
  5
40D4
331
40C1
  5
40D5
331
40C2
  5
40D8
331
40C3
  5
40D9
331
40C4
  5
40DA
331
40C7
  5
40DB
331
40C8
  5
40DC
331
40C9
  5
40E1
331
40CA
  5
40E2
331
40CB
  5
40E3
331
40D0
  5
40E6
331
40D1
  5
40E7
331
40D2
  5
411E
331
40DD
  5
414C
331
40DE
  5
4238
331
40DF
  5
4239
331
40E0
  5
423A
331
40E1
  5
423B
331
40E2
  5
456E
331
40E3
  5
456F
331
40E4
  5
4570
331
40E5
  5
4571
331
40E6
  5
4572
331
40E7
  5
4583
331
40E8
  5
4586
331
411E
  5
4587
331
458D
  5
40A6
331
4590
  5
3FE0
331
4591
  5
3FE1
331
4592
  5
3FE2
331
4593
  5
3FE3
331
4594
  5
3FE4
331
45AA
  5
45BC
331
45AB
  5
45BD
331
45B4
  5
45C2
331
45B5
  5
45C3
331
45B6
  5
45C4
331
45B7
  5
45C7
331
45B8
  5
45C8
331
45B9
  5
45BE
331
45BA
  5
45BF
331
45BB
  5
45C0
331
45BC
  5
45C1
331
45BD
  5
45C9
331
45BE
  5
45CA
331
45BF
  5
45CB
331
45C0
  5
45CC
331
45C1
  5
45CD
331
45C2
  5
45CE
331
45C3
  5
45CF
331
45C4
  5
45D1
331
45C7
  5
45D2
331
45C8
  5
45D3
331
45C9
  5
45D4
331
45CA
  5
45D5
331
45CB
  5
45D6
331
45CC
  5
45D7
331
45CD
  5
45D8
331
45CE
  5
45D9
331
45CF
  5
45DB
331
45D5
  5
45DC
331
45D6
  5
45F2
331
45D7
  5
45F3
331
45D8
  5
45F4
331
45D9
  5
45F5
331
45DA
  5
45F7
331
45DB
  5
45F8
331
45DC
  5
45F6
331
45F2
  5
45F9
331
45F3
  5
45FA
331
45F4
  5
45FB
331
45F5
  5
45FC
331
45F6
  5
45FD
331
45F7
  5
4613
331
45F8
  5
4614
331
45F9
  5
4615
331
45FA
  5
4616
331
45FB
  5
4617
331
45FC
  5
461C
331
45FD
  5
407F
331
4613
  5
461D
331
4614
  5
45DA
331
4615
  5
461E
331
4616
  5
461F
331
4617
  5
4620
331
461C
  5
4636
331
461D
  5
4637
331
461E
  5
4664
331
461F
  5
4665
331
4620
  5
4666
331
4636
  5
4667
331
4637
  5
4668
331
4668
  5
4669
331
4669
  5
3FAC
331
46FB
  5
46FF
331
46FC
  5
4703
331
46FD
  5
4704
331
46FE
  5
4705
331
46FF
  5
4706
331
4700
  5
4707
331
4701
  5
4708
331
4702
  5
4709
331
4703
  5
470A
331
4704
  5
470B
331
4705
  5
470C
331
4706
  5
470D
331
4707
  5
470E
331
4708
  5
470F
331
4709
  5
4710
331
470A
  5
4711
331
470B
  5
4712
331
470C
  5
4713
331
470D
  5
4714
331
470E
  5
4715
331
470F
  5
4716
331
4710
  5
4717
331
4711
  5
4718
331
4712
  5
4719
331
4713
  5
471A
331
4714
  5
4721
331
4715
  5
4725
331
4716
  5
4726
331
4717
  5
4727
331
4718
  5
4728
331
4719
  5
4729
331
471A
  5
472A
331
4721
  5
4722
331
4722
  5
4700
331
4723
  5
4740
331
4724
  5
4741
331
4725
  5
4742
331
4726
  5
4743
331
4727
  5
4744
331
4728
  5
4745
331
4729
  5
4701
331
472A
  5
4723
331
4740
  5
4702
331
4742
  5
4724
331
4743
  5
402B
331
4744
  5
402C
331
4760
  5
4760
331
4761
  5
4761
331
4762
  5
4762
331
4763
  5
4763
331
4764
  5
4764
331
4765
  5
4765
331
4766
  5
4766
331
4767
  5
4767
331
4768
  5
4768
331
4769
  5
4769
331
476C
  5
476C
331
476D
  5
476D
331
476E
  5
476E
331
476F
  5
476F
331
4770
  5
4770
331
4771
  5
4771
331
4772
  5
4772
331
4773
  5
4773
331
4774
  5
4774
331
4775
  5
4775
331
4776
  5
4776
331
4777
  5
4777
331
4778
  5
4778
331
4779
  5
4779
331
477A
  5
477A
331
477B
  5
477B
331
477C
  5
477C
331
477D
  5
477D
331
4780
  5
4780
331
4781
  5
4781
331
4782
  5
4782
331
4783
  5
4783
331
4784
  5
4784
331
4785
  5
4785
331
4786
  5
4786
331
4787
  5
4787
331
4788
  5
4788
331
4789
  5
4789
331
478A
  5
478A
331
478B
  5
478B
331
478C
  5
478C
331
478D
  5
478D
331
478E
  5
478E
331
478F
  5
478F
331
4790
  5
4790
331
4791
  5
4791
331
4792
  5
4792
331
4793
  5
4793
331
4794
  5
4794
331
4795
  5
4795
331
479A
  5
479A
331
479B
  5
479B
331
479C
  5
479C
331
479D
  5
479D
331
479E
  5
479E
331
479F
  5
479F
331
47A0
  5
47A0
331
47A1
  5
47A1
331
47A2
  5
47A2
331
47A3
  5
47A3
331
47A4
  5
47A4
331
47A5
  5
47A5
331
47A6
  5
47A6
331
47A7
  5
47A7
331
47A8
  5
47A8
331
47A9
  5
47A9
331
47AA
  5
47AA
331
47AB
  5
47AB
331
47AC
  5
47AC
331
47AD
  5
47AD
331
47AE
  5
47AE
331
47AF
  5
47AF
331
47CE
  5
47CE
331
47CF
  5
47CF
331
47D0
  5
47D0
331
47D1
  5
47D1
331
47D2
  5
47D2
331
47D3
  5
47D3
331
47D4
  5
47D4
331
47D6
  5
47D6
331
47DB
  5
47DB
331
47DC
  5
47DC
331
47DD
  5
47DD
331
47DE
  5
47DE
331
47E0
  5
47E0
331
47E1
  5
47E1
331
47E2
  5
47E2
331
47E3
  5
47E3
331
47E4
  5
47E4
331
47FA
  5
47FA
331
47FB
  5
47FB
331
47FC
  5
47FC
331
47FD
  5
47FD
331
47FE
  5
47FE
331
47FF
  5
47FF
331
4800
  5
4800
331
4801
  5
4801
331
4817
  5
4817
331
4818
  5
4818
331
4819
  5
4819
331
481A
  5
481A
331
481B
  5
481B
331
481C
  5
481C
331
481D
  5
481D
331
481E
  5
481E
331
481F
  5
481F
331
4820
  5
4820
331
4821
  5
4821
331
4822
  5
4822
331
4823
  5
4823
331
4824
  5
4824
331
4825
  5
4825
331
4826
  5
4826
331
4828
  5
4828
331
4829
  5
4829
331
482A
  5
482A
331
482B
  5
482B
331
482C
  5
482C
331
4834
  5
4834
331
483C
  5
483C
331
4844
  5
4844
331
484C
  5
484C
331
4854
  5
4854
331
485C
  5
485C
331
4864
  5
4864
331
486C
  5
486C
331
4874
  5
4874
331
487C
  5
487C
331
4884
  5
4884
331
488C
  5
488C
331
4894
  5
4894
331
489C
  5
489C
331
48A4
  5
48A4
331
48AC
  5
48AC
331
48B4
  5
48B4
331
48BC
  5
48BC
331
48C4
  5
48C4
331
48CC
  5
48CC
331
48D4
  5
48D4
331
48DC
  5
48DC
331
48E4
  5
48E4
331
48EC
  5
48EC
331
48F4
  5
48F4
331
48FC
  5
48FC
331
4904
  5
4904
331
490C
  5
490C
331
4914
  5
4914
331
491C
  5
491C
331
4924
  5
4924
331
492C
  5
492C
331
4934
  5
4934
331
493C
  5
493C
331
4944
  5
4944
331
494C
  5
494C
331
4954
  5
4954
331
495C
  5
495C
331
4964
  5
4964
331
4994
  5
4994
331
4995
  5
4995
331
4996
  5
4996
331
4997
  5
4997
331
4998
  5
4998
331
4999
  5
4999
331
499A
  5
499A
331
499B
  5
499B
331
499C
  5
499C
331
499D
  5
499D
331
499E
  5
499E
331
499F
  5
499F
331
49A3
  5
49A3
331
49A4
  5
49A4
331
49A5
  5
49A5
331
49A6
  5
49A6
331
49A7
  5
49A7
331
49A8
  5
49A8
331
4A3F
  5
4A3F
331
4A5B
  5
4A5B
331
4A85
  5
4A88
331
4A86
  5
4A9F
331
4A88
  5
4AA0
  0
SORTENTSTABLE
  5
3790
102
{ACAD_REACTORS
330
378F
102
}
330
378F
100
AcDbSortentsTable
330
15
331
172
  5
3700
331
3700
  5
3762
331
3762
  5
3763
331
3763
  5
3764
331
3764
  5
376A
331
3774
  5
3775
331
377A
  5
377F
331
3792
  5
172
331
3B7A
  5
3B7A
331
3B7B
  5
3B7B
331
3B7C
  5
3B7C
331
3B7D
  5
3B7D
331
3B82
  5
3B82
331
3B83
  5
3B83
331
3B84
  5
3B84
331
3B85
  5
3B85
  0
XRECORD
  5
4B78
102
{ACAD_REACTORS
330
4B77
102
}
330
4B77
100
AcDbXrecord
102
VISUALSTYLE
340
205E
102
GRIDDISPLAY
 70
     0
102
GRIDMAJOR
 70
     5
102
DEFAULTLIGHTING
280
     1
102
DEFAULTLIGHTINGTYPE
 70
     1
102
BRIGHTNESS
141
0.0
102
CONTRAST
142
0.0
  0
XRECORD
  5
4B88
102
{ACAD_REACTORS
330
3793
102
}
330
3793
100
AcDbXrecord
102
VISUALSTYLE
340
205E
102
GRIDDISPLAY
 70
     3
102
GRIDMAJOR
 70
     5
102
DEFAULTLIGHTING
280
     1
102
DEFAULTLIGHTINGTYPE
 70
     1
102
BRIGHTNESS
141
0.0
102
CONTRAST
142
0.0
  0
XRECORD
  5
3794
102
{ACAD_REACTORS
330
3793
102
}
330
3793
100
AcDbXrecord
 90
        1
340
206D
  0
IMAGEDEF
  5
36FE
102
{ACAD_REACTORS
330
36F7
330
36FF
102
}
330
36F7
100
AcDbRasterImageDef
 90
        0
  1
S:\proj\00_Brick It\Brick-It logo.jpg
 10
1251.0
 20
634.0
 11
0.3527777777777777
 21
0.3527777777777777
280
     1
281
     5
  0
MATERIAL
  5
2048
102
{ACAD_REACTORS
330
203F
102
}
102
{ACAD_XDICTIONARY
360
4C18
102
}
330
203F
100
AcDbMaterial
  1
ByBlock
 72
     0
 73
     2
 43
0.0208333333333333
 43
0.0
 43
0.0
 43
0.0
 43
0.0
 43
0.0208333333333333
 43
0.0
 43
0.0
 43
0.0
 43
0.0
 43
1.0
 43
0.0
 43
0.0
 43
0.0
 43
0.0
 43
1.0
 77
     0
 78
     2
 47
0.0208333333333333
 47
0.0
 47
0.0
 47
0.0
 47
0.0
 47
0.0208333333333333
 47
0.0
 47
0.0
 47
0.0
 47
0.0
 47
1.0
 47
0.0
 47
0.0
 47
0.0
 47
0.0
 47
1.0
171
     0
172
     2
 49
0.0208333333333333
 49
0.0
 49
0.0
 49
0.0
 49
0.0
 49
0.0208333333333333
 49
0.0
 49
0.0
 49
0.0
 49
0.0
 49
1.0
 49
0.0
 49
0.0
 49
0.0
 49
0.0
 49
1.0
175
     0
176
     2
142
0.0208333333333333
142
0.0
142
0.0
142
0.0
142
0.0
142
0.0208333333333333
142
0.0
142
0.0
142
0.0
142
0.0
142
1.0
142
0.0
142
0.0
142
0.0
142
0.0
142
1.0
179
     0
270
     2
144
0.0208333333333333
144
0.0
144
0.0
144
0.0
144
0.0
144
0.0208333333333333
144
0.0
144
0.0
144
0.0
144
0.0
144
1.0
144
0.0
144
0.0
144
0.0
144
0.0
144
1.0
274
     2
147
0.0208333333333333
147
0.0
147
0.0
147
0.0
147
0.0
147
0.0208333333333333
147
0.0
147
0.0
147
0.0
147
0.0
147
1.0
147
0.0
147
0.0
147
0.0
147
0.0
147
1.0
  0
MATERIAL
  5
2040
102
{ACAD_REACTORS
330
203F
102
}
102
{ACAD_XDICTIONARY
360
4C1A
102
}
330
203F
100
AcDbMaterial
  1
ByLayer
 72
     0
 73
     2
 43
0.0208333333333333
 43
0.0
 43
0.0
 43
0.0
 43
0.0
 43
0.0208333333333333
 43
0.0
 43
0.0
 43
0.0
 43
0.0
 43
1.0
 43
0.0
 43
0.0
 43
0.0
 43
0.0
 43
1.0
 77
     0
 78
     2
 47
0.0208333333333333
 47
0.0
 47
0.0
 47
0.0
 47
0.0
 47
0.0208333333333333
 47
0.0
 47
0.0
 47
0.0
 47
0.0
 47
1.0
 47
0.0
 47
0.0
 47
0.0
 47
0.0
 47
1.0
171
     0
172
     2
 49
0.0208333333333333
 49
0.0
 49
0.0
 49
0.0
 49
0.0
 49
0.0208333333333333
 49
0.0
 49
0.0
 49
0.0
 49
0.0
 49
1.0
 49
0.0
 49
0.0
 49
0.0
 49
0.0
 49
1.0
175
     0
176
     2
142
0.0208333333333333
142
0.0
142
0.0
142
0.0
142
0.0
142
0.0208333333333333
142
0.0
142
0.0
142
0.0
142
0.0
142
1.0
142
0.0
142
0.0
142
0.0
142
0.0
142
1.0
179
     0
270
     2
144
0.0208333333333333
144
0.0
144
0.0
144
0.0
144
0.0
144
0.0208333333333333
144
0.0
144
0.0
144
0.0
144
0.0
144
1.0
144
0.0
144
0.0
144
0.0
144
0.0
144
1.0
274
     2
147
0.0208333333333333
147
0.0
147
0.0
147
0.0
147
0.0
147
0.0208333333333333
147
0.0
147
0.0
147
0.0
147
0.0
147
1.0
147
0.0
147
0.0
147
0.0
147
0.0
147
1.0
  0
MATERIAL
  5
2050
102
{ACAD_REACTORS
330
203F
102
}
102
{ACAD_XDICTIONARY
360
4C1C
102
}
330
203F
100
AcDbMaterial
  1
Global
 72
     0
 73
     2
 43
0.0208333333333333
 43
0.0
 43
0.0
 43
0.0
 43
0.0
 43
0.0208333333333333
 43
0.0
 43
0.0
 43
0.0
 43
0.0
 43
1.0
 43
0.0
 43
0.0
 43
0.0
 43
0.0
 43
1.0
 77
     0
 78
     2
 47
0.0208333333333333
 47
0.0
 47
0.0
 47
0.0
 47
0.0
 47
0.0208333333333333
 47
0.0
 47
0.0
 47
0.0
 47
0.0
 47
1.0
 47
0.0
 47
0.0
 47
0.0
 47
0.0
 47
1.0
171
     0
172
     2
 49
0.0208333333333333
 49
0.0
 49
0.0
 49
0.0
 49
0.0
 49
0.0208333333333333
 49
0.0
 49
0.0
 49
0.0
 49
0.0
 49
1.0
 49
0.0
 49
0.0
 49
0.0
 49
0.0
 49
1.0
175
     0
176
     2
142
0.0208333333333333
142
0.0
142
0.0
142
0.0
142
0.0
142
0.0208333333333333
142
0.0
142
0.0
142
0.0
142
0.0
142
1.0
142
0.0
142
0.0
142
0.0
142
0.0
142
1.0
179
     0
270
     2
144
0.0208333333333333
144
0.0
144
0.0
144
0.0
144
0.0
144
0.0208333333333333
144
0.0
144
0.0
144
0.0
144
0.0
144
1.0
144
0.0
144
0.0
144
0.0
144
0.0
144
1.0
274
     2
147
0.0208333333333333
147
0.0
147
0.0
147
0.0
147
0.0
147
0.0208333333333333
147
0.0
147
0.0
147
0.0
147
0.0
147
1.0
147
0.0
147
0.0
147
0.0
147
0.0
147
1.0
  0
ACAD_PROXY_OBJECT
  5
208F
102
{ACAD_REACTORS
330
208E
102
}
330
208E
100
AcDbProxyObject
 90
      499
 91
      511
 93
      610
310
40901902A4063FBFFFFFE056BD1B81E855B9FC0AD7A3703D0AD73F4214DD185B99185C9900AD7A3703D0AC73F90141901A02B5E8DC0F42B1CFC02B5E8DC0F42B1CFE5764000000000000300FC0
340
12
340
0
340
F
340
0
 94
        0
1001
ACAD_MLEADERVER
1070
     2
  0
MLINESTYLE
  5
1C
102
{ACAD_REACTORS
330
1B
102
}
330
1B
100
AcDbMlineStyle
  2
STANDARD
 70
     0
  3

 62
   256
 51
90.0
 52
90.0
 71
     2
 49
0.5
 62
   256
  6
BYLAYER
 49
-0.5
 62
   256
  6
BYLAYER
  0
PLOTSETTINGS
  5
2B7E
102
{ACAD_REACTORS
330
B16
102
}
330
B16
100
AcDbPlotSettings
  1
8.5x11
  2
Kyocera Mita KM-1650 KX
  4
Letter
  6

 40
4.984749794006348
 41
5.069418907165527
 42
5.06939697265625
 43
4.9847412109375
 44
215.8999938964844
 45
279.3999938964844
 46
-5.027076435089054
 47
-5.02708311080938
 48
0.0000000000000036
 49
-0.0000000000000053
140
8.5
141
11.0
142
1.0
143
1.0
 70
  2724
 72
     0
 73
     0
 74
     4
  7
SWAN11X17.ctb
 75
     0
147
0.7367424736214094
148
-0.0000000000000902
149
0.0000000000001354
1001
ACAD_PSEXT
1000
Kyocera Mita KM-1650 KX
1000
Kyocera Mita KM-1650 KX
1000
IP_192.168.1.188
1000

1070
     0
  0
PLOTSETTINGS
  5
270F
102
{ACAD_REACTORS
330
B16
102
}
330
B16
100
AcDbPlotSettings
  1
PDF2436
  2
PDF-XChange Lite 3.0.pc3
  4
User265
  6

 40
3.174999952316284
 41
3.174999952316284
 42
3.17498779296875
 43
3.17498779296875
 44
914.3999633789062
 45
609.5999755859375
 46
0.0
 47
0.0
 48
0.0
 49
0.0
140
36.00000000000001
141
24.0
142
1.0
143
1.0
 70
  2736
 72
     0
 73
     0
 74
     4
  7
swan2436.ctb
 75
    16
147
1.0
148
0.0
149
0.0
1001
ACAD_PSEXT
1000
PDF-XChange Lite 3.0.pc3
1000
PDF-XChange Lite 3.0
1000
PDF-XChange
1000

1070
     0
  0
PLOTSETTINGS
  5
26FD
102
{ACAD_REACTORS
330
B16
102
}
330
B16
100
AcDbPlotSettings
  1
PLOT2436
  2
HP DesignJet 500 42 by HP.pc3
  4
User1658
  6

 40
0.0
 41
0.0
 42
0.0
 43
0.0
 44
914.4000244140625
 45
609.6000366210938
 46
0.0
 47
0.0
 48
0.0
 49
0.0
140
36.00000000000001
141
24.0
142
1.0
143
1.0
 70
  2736
 72
     0
 73
     0
 74
     4
  7
swan2436.ctb
 75
    16
147
1.0
148
0.0
149
0.0
1001
ACAD_PSEXT
1000
HP DesignJet 500 42 by HP.pc3
1000
HP DesignJet 500 42 by HP
1000
\\SWAN2003
1000

1070
     0
  0
PLOTSETTINGS
  5
2720
102
{ACAD_REACTORS
330
B16
102
}
330
B16
100
AcDbPlotSettings
  1
PRINT11X17
  2
Kyocera Mita KM-1650 KX.pc3
  4
Tabloid
  6

 40
4.984749794006348
 41
5.069418907165527
 42
5.069427490234375
 43
4.9847412109375
 44
431.7999877929688
 45
279.3999938964844
 46
0.0
 47
0.0
 48
0.0
 49
0.0
140
36.00000000000001
141
24.0
142
1.0
143
2.263261292920465
 70
  2736
 72
     0
 73
     0
 74
     4
  7
Swan_Generic_Medium.ctb
 75
     0
147
0.4418402785078434
148
0.0
149
0.0
1001
ACAD_PSEXT
1000
Kyocera Mita KM-1650 KX.pc3
1000
Kyocera Mita KM-1650 KX
1000
IP_192.168.1.188
1000

1070
     0
  0
ACAD_PROXY_OBJECT
  5
3E35
102
{ACAD_REACTORS
330
206C
102
}
330
206C
100
AcDbProxyObject
 90
      499
 91
      510
 93
       81
310
908313A315F58524546500
  0
ACAD_PROXY_OBJECT
  5
3E42
102
{ACAD_REACTORS
330
206C
102
}
330
206C
100
AcDbProxyObject
 90
      499
 91
      510
 93
      145
310
908313A325F585245464000000000000004000
  0
ACAD_PROXY_OBJECT
  5
3E43
102
{ACAD_REACTORS
330
206C
102
}
330
206C
100
AcDbProxyObject
 90
      499
 91
      510
 93
      201
310
90F3130303A315F585245465F585245460000000000001650100
1001
ACAD
1000
AcRTDxfName
1000
SCALE
1000
AcRTDxfName
1000
SCALE
1000
AcRTDxfName
1000
SCALE
1000
AcRTDxfName
1000
SCALE
1000
AcRTDxfName
1000
SCALE
1000
AcRTDxfName
1000
SCALE
  0
ACAD_PROXY_OBJECT
  5
3E59
102
{ACAD_REACTORS
330
206C
102
}
330
206C
100
AcDbProxyObject
 90
      499
 91
      510
 93
      337
310
918312F31323822203D2031272D30225F585245465F58524546000000000000200FC000000000000284000
1001
ACAD
1000
AcRTDxfName
1000
SCALE
1000
AcRTDxfName
1000
SCALE
1000
AcRTDxfName
1000
SCALE
1000
AcRTDxfName
1000
SCALE
1000
AcRTDxfName
1000
SCALE
1000
AcRTDxfName
1000
SCALE
  0
ACAD_PROXY_OBJECT
  5
3E44
102
{ACAD_REACTORS
330
206C
102
}
330
206C
100
AcDbProxyObject
 90
      499
 91
      510
 93
      193
310
90E313A33305F585245465F5852454640000000000003E4000
1001
ACAD
1000
AcRTDxfName
1000
SCALE
1000
AcRTDxfName
1000
SCALE
1000
AcRTDxfName
1000
SCALE
1000
AcRTDxfName
1000
SCALE
1000
AcRTDxfName
1000
SCALE
1000
AcRTDxfName
1000
SCALE
  0
ACAD_PROXY_OBJECT
  5
3E36
102
{ACAD_REACTORS
330
206C
102
}
330
206C
100
AcDbProxyObject
 90
      499
 91
      510
 93
      185
310
90D313A355F585245465F585245464000000000000144000
1001
ACAD
1000
AcRTDxfName
1000
SCALE
1000
AcRTDxfName
1000
SCALE
1000
AcRTDxfName
1000
SCALE
1000
AcRTDxfName
1000
SCALE
1000
AcRTDxfName
1000
SCALE
1000
AcRTDxfName
1000
SCALE
  0
ACAD_PROXY_OBJECT
  5
3E45
102
{ACAD_REACTORS
330
206C
102
}
330
206C
100
AcDbProxyObject
 90
      499
 91
      510
 93
      193
310
90E313A35305F585245465F585245464000000000000494000
1001
ACAD
1000
AcRTDxfName
1000
SCALE
1000
AcRTDxfName
1000
SCALE
1000
AcRTDxfName
1000
SCALE
1000
AcRTDxfName
1000
SCALE
1000
AcRTDxfName
1000
SCALE
1000
AcRTDxfName
1000
SCALE
  0
ACAD_PROXY_OBJECT
  5
3E54
102
{ACAD_REACTORS
330
206C
102
}
330
206C
100
AcDbProxyObject
 90
      499
 91
      510
 93
      193
310
90E313A31365F585245465F585245464000000000000304000
1001
ACAD
1000
AcRTDxfName
1000
SCALE
1000
AcRTDxfName
1000
SCALE
1000
AcRTDxfName
1000
SCALE
1000
AcRTDxfName
1000
SCALE
1000
AcRTDxfName
1000
SCALE
1000
AcRTDxfName
1000
SCALE
  0
ACAD_PROXY_OBJECT
  5
3E48
102
{ACAD_REACTORS
330
206C
102
}
330
206C
100
AcDbProxyObject
 90
      499
 91
      510
 93
      185
310
90D343A315F585245465F585245460000000000000410100
1001
ACAD
1000
AcRTDxfName
1000
SCALE
1000
AcRTDxfName
1000
SCALE
1000
AcRTDxfName
1000
SCALE
1000
AcRTDxfName
1000
SCALE
1000
AcRTDxfName
1000
SCALE
1000
AcRTDxfName
1000
SCALE
  0
ACAD_PROXY_OBJECT
  5
3E49
102
{ACAD_REACTORS
330
206C
102
}
330
206C
100
AcDbProxyObject
 90
      499
 91
      510
 93
      153
310
909313A35305F585245464000000000000494000
  0
ACAD_PROXY_OBJECT
  5
3E4A
102
{ACAD_REACTORS
330
206C
102
}
330
206C
100
AcDbProxyObject
 90
      499
 91
      510
 93
      153
310
909313A34305F585245464000000000000444000
  0
ACAD_PROXY_OBJECT
  5
3E3A
102
{ACAD_REACTORS
330
206C
102
}
330
206C
100
AcDbProxyObject
 90
      499
 91
      510
 93
      145
310
908383A315F585245460000000000000810100
  0
ACAD_PROXY_OBJECT
  5
3E4B
102
{ACAD_REACTORS
330
206C
102
}
330
206C
100
AcDbProxyObject
 90
      499
 91
      510
 93
      145
310
908323A315F585245460000000000000010100
  0
ACAD_PROXY_OBJECT
  5
3E3E
102
{ACAD_REACTORS
330
206C
102
}
330
206C
100
AcDbProxyObject
 90
      499
 91
      510
 93
      145
310
908343A315F585245460000000000000410100
  0
ACAD_PROXY_OBJECT
  5
3E4C
102
{ACAD_REACTORS
330
206C
102
}
330
206C
100
AcDbProxyObject
 90
      499
 91
      510
 93
      297
310
913312F31323822203D2031272D30225F58524546000000000000200FC000000000000284000
  0
ACAD_PROXY_OBJECT
  5
3E5A
102
{ACAD_REACTORS
330
206C
102
}
330
206C
100
AcDbProxyObject
 90
      499
 91
      510
 93
      161
310
90A3130303A315F585245460000000000001650100
  0
ACAD_PROXY_OBJECT
  5
3E4F
102
{ACAD_REACTORS
330
206C
102
}
330
206C
100
AcDbProxyObject
 90
      499
 91
      510
 93
      297
310
913312D312F3222203D2031272D30225F585245460000000000003E0FC000000000000284000
  0
ACAD_PROXY_OBJECT
  5
3E50
102
{ACAD_REACTORS
330
206C
102
}
330
206C
100
AcDbProxyObject
 90
      499
 91
      510
 93
      145
310
908313A355F585245464000000000000144000
  0
ACAD_PROXY_OBJECT
  5
3E51
102
{ACAD_REACTORS
330
206C
102
}
330
206C
100
AcDbProxyObject
 90
      499
 91
      510
 93
      153
310
909313A32305F585245464000000000000344000
  0
ACAD_PROXY_OBJECT
  5
3E37
102
{ACAD_REACTORS
330
206C
102
}
330
206C
100
AcDbProxyObject
 90
      499
 91
      510
 93
      153
310
90931303A315F585245460000000000000910100
  0
ACAD_PROXY_OBJECT
  5
3E46
102
{ACAD_REACTORS
330
206C
102
}
330
206C
100
AcDbProxyObject
 90
      499
 91
      510
 93
      161
310
90A313A3130305F585245464000000000000594000
  0
ACAD_PROXY_OBJECT
  5
3E52
102
{ACAD_REACTORS
330
206C
102
}
330
206C
100
AcDbProxyObject
 90
      499
 91
      510
 93
      145
310
908313A385F585245464000000000000204000
  0
ACAD_PROXY_OBJECT
  5
3E3B
102
{ACAD_REACTORS
330
206C
102
}
330
206C
100
AcDbProxyObject
 90
      499
 91
      510
 93
      145
310
908313A345F585245464000000000000104000
  0
ACAD_PROXY_OBJECT
  5
3E55
102
{ACAD_REACTORS
330
206C
102
}
330
206C
100
AcDbProxyObject
 90
      499
 91
      510
 93
      257
310
90E3120312F3222203D2031272D30220000000000003E0FC000000000000284000
  0
ACAD_PROXY_OBJECT
  5
3E56
102
{ACAD_REACTORS
330
206C
102
}
330
206C
100
AcDbProxyObject
 90
      499
 91
      510
 93
      153
310
909313A31365F585245464000000000000304000
  0
ACAD_PROXY_OBJECT
  5
3E57
102
{ACAD_REACTORS
330
206C
102
}
330
206C
100
AcDbProxyObject
 90
      499
 91
      510
 93
      153
310
909313A31305F585245464000000000000244000
  0
ACAD_PROXY_OBJECT
  5
3E3F
102
{ACAD_REACTORS
330
206C
102
}
330
206C
100
AcDbProxyObject
 90
      499
 91
      510
 93
      153
310
909313A33305F5852454640000000000003E4000
  0
ACAD_PROXY_OBJECT
  5
3E4D
102
{ACAD_REACTORS
330
206C
102
}
330
206C
100
AcDbProxyObject
 90
      499
 91
      510
 93
      185
310
90D313A325F585245465F585245464000000000000004000
1001
ACAD
1000
AcRTDxfName
1000
SCALE
1000
AcRTDxfName
1000
SCALE
1000
AcRTDxfName
1000
SCALE
1000
AcRTDxfName
1000
SCALE
1000
AcRTDxfName
1000
SCALE
1000
AcRTDxfName
1000
SCALE
  0
ACAD_PROXY_OBJECT
  5
3E58
102
{ACAD_REACTORS
330
206C
102
}
330
206C
100
AcDbProxyObject
 90
      499
 91
      510
 93
      185
310
90D313A345F585245465F585245464000000000000104000
1001
ACAD
1000
AcRTDxfName
1000
SCALE
1000
AcRTDxfName
1000
SCALE
1000
AcRTDxfName
1000
SCALE
1000
AcRTDxfName
1000
SCALE
1000
AcRTDxfName
1000
SCALE
1000
AcRTDxfName
1000
SCALE
  0
ACAD_PROXY_OBJECT
  5
3E5B
102
{ACAD_REACTORS
330
206C
102
}
330
206C
100
AcDbProxyObject
 90
      499
 91
      510
 93
      185
310
90D313A385F585245465F585245464000000000000204000
1001
ACAD
1000
AcRTDxfName
1000
SCALE
1000
AcRTDxfName
1000
SCALE
1000
AcRTDxfName
1000
SCALE
1000
AcRTDxfName
1000
SCALE
1000
AcRTDxfName
1000
SCALE
1000
AcRTDxfName
1000
SCALE
  0
ACAD_PROXY_OBJECT
  5
3E38
102
{ACAD_REACTORS
330
206C
102
}
330
206C
100
AcDbProxyObject
 90
      499
 91
      510
 93
      193
310
90E313A32305F585245465F585245464000000000000344000
1001
ACAD
1000
AcRTDxfName
1000
SCALE
1000
AcRTDxfName
1000
SCALE
1000
AcRTDxfName
1000
SCALE
1000
AcRTDxfName
1000
SCALE
1000
AcRTDxfName
1000
SCALE
1000
AcRTDxfName
1000
SCALE
  0
ACAD_PROXY_OBJECT
  5
3E5C
102
{ACAD_REACTORS
330
206C
102
}
330
206C
100
AcDbProxyObject
 90
      499
 91
      510
 93
      185
310
90D383A315F585245465F585245460000000000000810100
1001
ACAD
1000
AcRTDxfName
1000
SCALE
1000
AcRTDxfName
1000
SCALE
1000
AcRTDxfName
1000
SCALE
1000
AcRTDxfName
1000
SCALE
1000
AcRTDxfName
1000
SCALE
1000
AcRTDxfName
1000
SCALE
  0
ACAD_PROXY_OBJECT
  5
3E47
102
{ACAD_REACTORS
330
206C
102
}
330
206C
100
AcDbProxyObject
 90
      499
 91
      510
 93
      337
310
918312D312F3222203D2031272D30225F585245465F585245460000000000003E0FC000000000000284000
1001
ACAD
1000
AcRTDxfName
1000
SCALE
1000
AcRTDxfName
1000
SCALE
1000
AcRTDxfName
1000
SCALE
1000
AcRTDxfName
1000
SCALE
1000
AcRTDxfName
1000
SCALE
1000
AcRTDxfName
1000
SCALE
  0
ACAD_PROXY_OBJECT
  5
3E53
102
{ACAD_REACTORS
330
206C
102
}
330
206C
100
AcDbProxyObject
 90
      499
 91
      510
 93
      193
310
90E313A31305F585245465F585245464000000000000244000
1001
ACAD
1000
AcRTDxfName
1000
SCALE
1000
AcRTDxfName
1000
SCALE
1000
AcRTDxfName
1000
SCALE
1000
AcRTDxfName
1000
SCALE
1000
AcRTDxfName
1000
SCALE
1000
AcRTDxfName
1000
SCALE
  0
ACAD_PROXY_OBJECT
  5
3E39
102
{ACAD_REACTORS
330
206C
102
}
330
206C
100
AcDbProxyObject
 90
      499
 91
      510
 93
      185
310
90D323A315F585245465F585245460000000000000010100
1001
ACAD
1000
AcRTDxfName
1000
SCALE
1000
AcRTDxfName
1000
SCALE
1000
AcRTDxfName
1000
SCALE
1000
AcRTDxfName
1000
SCALE
1000
AcRTDxfName
1000
SCALE
1000
AcRTDxfName
1000
SCALE
  0
ACAD_PROXY_OBJECT
  5
3E3C
102
{ACAD_REACTORS
330
206C
102
}
330
206C
100
AcDbProxyObject
 90
      499
 91
      510
 93
      121
310
90D313A315F585245465F58524546500
1001
ACAD
1000
AcRTDxfName
1000
SCALE
1000
AcRTDxfName
1000
SCALE
1000
AcRTDxfName
1000
SCALE
1000
AcRTDxfName
1000
SCALE
1000
AcRTDxfName
1000
SCALE
1000
AcRTDxfName
1000
SCALE
  0
ACAD_PROXY_OBJECT
  5
3E40
102
{ACAD_REACTORS
330
206C
102
}
330
206C
100
AcDbProxyObject
 90
      499
 91
      510
 93
      201
310
90F313A3130305F585245465F585245464000000000000594000
1001
ACAD
1000
AcRTDxfName
1000
SCALE
1000
AcRTDxfName
1000
SCALE
1000
AcRTDxfName
1000
SCALE
1000
AcRTDxfName
1000
SCALE
1000
AcRTDxfName
1000
SCALE
1000
AcRTDxfName
1000
SCALE
  0
ACAD_PROXY_OBJECT
  5
3E3D
102
{ACAD_REACTORS
330
206C
102
}
330
206C
100
AcDbProxyObject
 90
      499
 91
      510
 93
      193
310
90E31303A315F585245465F585245460000000000000910100
1001
ACAD
1000
AcRTDxfName
1000
SCALE
1000
AcRTDxfName
1000
SCALE
1000
AcRTDxfName
1000
SCALE
1000
AcRTDxfName
1000
SCALE
1000
AcRTDxfName
1000
SCALE
1000
AcRTDxfName
1000
SCALE
  0
ACAD_PROXY_OBJECT
  5
3E4E
102
{ACAD_REACTORS
330
206C
102
}
330
206C
100
AcDbProxyObject
 90
      499
 91
      510
 93
      297
310
9133120312F3222203D2031272D30225F585245460000000000003E0FC000000000000284000
1001
ACAD
1000
AcRTDxfName
1000
SCALE
1000
AcRTDxfName
1000
SCALE
1000
AcRTDxfName
1000
SCALE
1000
AcRTDxfName
1000
SCALE
1000
AcRTDxfName
1000
SCALE
  0
ACAD_PROXY_OBJECT
  5
3E41
102
{ACAD_REACTORS
330
206C
102
}
330
206C
100
AcDbProxyObject
 90
      499
 91
      510
 93
      193
310
90E313A34305F585245465F585245464000000000000444000
1001
ACAD
1000
AcRTDxfName
1000
SCALE
1000
AcRTDxfName
1000
SCALE
1000
AcRTDxfName
1000
SCALE
1000
AcRTDxfName
1000
SCALE
1000
AcRTDxfName
1000
SCALE
1000
AcRTDxfName
1000
SCALE
  0
ACAD_PROXY_OBJECT
  5
206D
102
{ACAD_REACTORS
330
206C
102
}
330
206C
100
AcDbProxyObject
 90
      499
 91
      510
 93
       41
310
903313A31580
  0
ACAD_PROXY_OBJECT
  5
206E
102
{ACAD_REACTORS
330
206C
102
}
330
206C
100
AcDbProxyObject
 90
      499
 91
      510
 93
      105
310
903313A324000000000000004000
  0
ACAD_PROXY_OBJECT
  5
206F
102
{ACAD_REACTORS
330
206C
102
}
330
206C
100
AcDbProxyObject
 90
      499
 91
      510
 93
      105
310
903313A344000000000000104000
  0
ACAD_PROXY_OBJECT
  5
2070
102
{ACAD_REACTORS
330
206C
102
}
330
206C
100
AcDbProxyObject
 90
      499
 91
      510
 93
      105
310
903313A354000000000000144000
  0
ACAD_PROXY_OBJECT
  5
2071
102
{ACAD_REACTORS
330
206C
102
}
330
206C
100
AcDbProxyObject
 90
      499
 91
      510
 93
      105
310
903313A384000000000000204000
  0
ACAD_PROXY_OBJECT
  5
2072
102
{ACAD_REACTORS
330
206C
102
}
330
206C
100
AcDbProxyObject
 90
      499
 91
      510
 93
      113
310
904313A31304000000000000244000
  0
ACAD_PROXY_OBJECT
  5
2073
102
{ACAD_REACTORS
330
206C
102
}
330
206C
100
AcDbProxyObject
 90
      499
 91
      510
 93
      113
310
904313A31364000000000000304000
  0
ACAD_PROXY_OBJECT
  5
2074
102
{ACAD_REACTORS
330
206C
102
}
330
206C
100
AcDbProxyObject
 90
      499
 91
      510
 93
      113
310
904313A32304000000000000344000
  0
ACAD_PROXY_OBJECT
  5
2075
102
{ACAD_REACTORS
330
206C
102
}
330
206C
100
AcDbProxyObject
 90
      499
 91
      510
 93
      113
310
904313A333040000000000003E4000
  0
ACAD_PROXY_OBJECT
  5
2076
102
{ACAD_REACTORS
330
206C
102
}
330
206C
100
AcDbProxyObject
 90
      499
 91
      510
 93
      113
310
904313A34304000000000000444000
  0
ACAD_PROXY_OBJECT
  5
2077
102
{ACAD_REACTORS
330
206C
102
}
330
206C
100
AcDbProxyObject
 90
      499
 91
      510
 93
      113
310
904313A35304000000000000494000
  0
ACAD_PROXY_OBJECT
  5
2078
102
{ACAD_REACTORS
330
206C
102
}
330
206C
100
AcDbProxyObject
 90
      499
 91
      510
 93
      121
310
905313A3130304000000000000594000
  0
ACAD_PROXY_OBJECT
  5
2079
102
{ACAD_REACTORS
330
206C
102
}
330
206C
100
AcDbProxyObject
 90
      499
 91
      510
 93
      105
310
903323A310000000000000010100
  0
ACAD_PROXY_OBJECT
  5
207A
102
{ACAD_REACTORS
330
206C
102
}
330
206C
100
AcDbProxyObject
 90
      499
 91
      510
 93
      105
310
903343A310000000000000410100
  0
ACAD_PROXY_OBJECT
  5
207B
102
{ACAD_REACTORS
330
206C
102
}
330
206C
100
AcDbProxyObject
 90
      499
 91
      510
 93
      105
310
903383A310000000000000810100
  0
ACAD_PROXY_OBJECT
  5
207C
102
{ACAD_REACTORS
330
206C
102
}
330
206C
100
AcDbProxyObject
 90
      499
 91
      510
 93
      113
310
90431303A310000000000000910100
  0
ACAD_PROXY_OBJECT
  5
207D
102
{ACAD_REACTORS
330
206C
102
}
330
206C
100
AcDbProxyObject
 90
      499
 91
      510
 93
      121
310
9053130303A310000000000001650100
  0
ACAD_PROXY_OBJECT
  5
207E
102
{ACAD_REACTORS
330
206C
102
}
330
206C
100
AcDbProxyObject
 90
      499
 91
      510
 93
      257
310
90E312F31323822203D2031272D3022000000000000200FC000000000000284000
  0
ACAD_PROXY_OBJECT
  5
207F
102
{ACAD_REACTORS
330
206C
102
}
330
206C
100
AcDbProxyObject
 90
      499
 91
      510
 93
      249
310
90D312F363422203D2031272D3022000000000000240FC000000000000284000
  0
ACAD_PROXY_OBJECT
  5
2080
102
{ACAD_REACTORS
330
206C
102
}
330
206C
100
AcDbProxyObject
 90
      499
 91
      510
 93
      249
310
90D312F333222203D2031272D3022000000000000280FC000000000000284000
  0
ACAD_PROXY_OBJECT
  5
2081
102
{ACAD_REACTORS
330
206C
102
}
330
206C
100
AcDbProxyObject
 90
      499
 91
      510
 93
      249
310
90D312F313622203D2031272D30220000000000002C0FC000000000000284000
  0
ACAD_PROXY_OBJECT
  5
2082
102
{ACAD_REACTORS
330
206C
102
}
330
206C
100
AcDbProxyObject
 90
      499
 91
      510
 93
      249
310
90D332F333222203D2031272D30220000000000002E0FC000000000000284000
  0
ACAD_PROXY_OBJECT
  5
2083
102
{ACAD_REACTORS
330
206C
102
}
330
206C
100
AcDbProxyObject
 90
      499
 91
      510
 93
      241
310
90C312F3822203D2031272D3022000000000000300FC000000000000284000
  0
ACAD_PROXY_OBJECT
  5
2084
102
{ACAD_REACTORS
330
206C
102
}
330
206C
100
AcDbProxyObject
 90
      499
 91
      510
 93
      249
310
90D332F313622203D2031272D3022000000000000320FC000000000000284000
  0
ACAD_PROXY_OBJECT
  5
2085
102
{ACAD_REACTORS
330
206C
102
}
330
206C
100
AcDbProxyObject
 90
      499
 91
      510
 93
      241
310
90C312F3422203D2031272D3022000000000000340FC000000000000284000
  0
ACAD_PROXY_OBJECT
  5
2086
102
{ACAD_REACTORS
330
206C
102
}
330
206C
100
AcDbProxyObject
 90
      499
 91
      510
 93
      241
310
90C332F3822203D2031272D3022000000000000360FC000000000000284000
  0
ACAD_PROXY_OBJECT
  5
2087
102
{ACAD_REACTORS
330
206C
102
}
330
206C
100
AcDbProxyObject
 90
      499
 91
      510
 93
      241
310
90C312F3222203D2031272D3022000000000000380FC000000000000284000
  0
ACAD_PROXY_OBJECT
  5
2088
102
{ACAD_REACTORS
330
206C
102
}
330
206C
100
AcDbProxyObject
 90
      499
 91
      510
 93
      241
310
90C332F3422203D2031272D30220000000000003A0FC000000000000284000
  0
ACAD_PROXY_OBJECT
  5
2089
102
{ACAD_REACTORS
330
206C
102
}
330
206C
100
AcDbProxyObject
 90
      499
 91
      510
 93
      161
310
90A3122203D2031272D30224000000000000284000
  0
ACAD_PROXY_OBJECT
  5
208A
102
{ACAD_REACTORS
330
206C
102
}
330
206C
100
AcDbProxyObject
 90
      499
 91
      510
 93
      257
310
90E312D312F3222203D2031272D30220000000000003E0FC000000000000284000
  0
ACAD_PROXY_OBJECT
  5
208B
102
{ACAD_REACTORS
330
206C
102
}
330
206C
100
AcDbProxyObject
 90
      499
 91
      510
 93
      225
310
90A3322203D2031272D302200000000000002100000000000000284000
  0
ACAD_PROXY_OBJECT
  5
208C
102
{ACAD_REACTORS
330
206C
102
}
330
206C
100
AcDbProxyObject
 90
      499
 91
      510
 93
      225
310
90A3622203D2031272D302200000000000006100000000000000284000
  0
ACAD_PROXY_OBJECT
  5
208D
102
{ACAD_REACTORS
330
206C
102
}
330
206C
100
AcDbProxyObject
 90
      499
 91
      510
 93
      249
310
90D31272D3022203D2031272D30220000000000000A100000000000000284000
  0
ACAD_PROXY_OBJECT
  5
205E
102
{ACAD_REACTORS
330
2058
102
}
330
2058
100
AcDbProxyObject
 90
      499
 91
      508
 93
      436
310
42CC9915DA5C99599C985B595049028333333333333E3BF0000000000000FB0107901411070040501600405405064090741402480A0340
1001
ACAD
1000
AcDbSavedByObjectVersion
1070
     0
  0
ACAD_PROXY_OBJECT
  5
2060
102
{ACAD_REACTORS
330
2058
102
}
330
2058
100
AcDbProxyObject
 90
      499
 91
      508
 93
      500
310
424CD108121A5919195B90640502408333333333333E3BF0000000000000FB01079024090700405020000000000001110200405405064090740C02480A0340
1001
ACAD
1000
AcDbSavedByObjectVersion
1070
     0
  0
ACAD_PROXY_OBJECT
  5
205F
102
{ACAD_REACTORS
330
2058
102
}
330
2058
100
AcDbProxyObject
 90
      499
 91
      508
 93
      436
310
42CCD915DA5C99599C985B595059028333333333333E3BF0000000000000FB0107901411070040501600405405064090741402480A0340
1001
ACAD
1000
AcDbSavedByObjectVersion
1070
     0
  0
ACAD_PROXY_OBJECT
  5
205D
102
{ACAD_REACTORS
330
2058
102
}
330
2058
100
AcDbProxyObject
 90
      499
 91
      508
 93
      388
310
4150985CDA58D07406404333333333333E3BF0000000000000FB0107A41107004050150841D405064090741402480A0350
1001
ACAD
1000
AcDbSavedByObjectVersion
1070
     0
  0
ACAD_PROXY_OBJECT
  5
2064
102
{ACAD_REACTORS
330
2058
102
}
330
2058
100
AcDbProxyObject
 90
      499
 91
      508
 93
      428
310
42109C9A59DA1D195B90C409028333333333333E3BF0000000000000FB010790141107004050150841D405064090741402480A029950
1001
ACAD
1000
AcDbSavedByObjectVersion
1070
     0
  0
ACAD_PROXY_OBJECT
  5
2068
102
{ACAD_REACTORS
330
2058
102
}
330
2058
100
AcDbProxyObject
 90
      499
 91
      508
 93
      452
310
42D0DBDB1BDC90DA185B99D95104090240C333333333333E3BF0000000000000FB0108901411070040501508421405064090741402480A0350
1001
ACAD
1000
AcDbSavedByObjectVersion
1070
     0
  0
ACAD_PROXY_OBJECT
  5
2061
102
{ACAD_REACTORS
330
2058
102
}
330
2058
100
AcDbProxyObject
 90
      499
 91
      508
 93
      500
310
4290DBDB98D95C1D1D585B10940D028333333333333E3BF0000000000000FB0107902409070040501000000000000111010841D405064090740C02480A0340
1001
ACAD
1000
AcDbSavedByObjectVersion
1070
     0
  0
ACAD_PROXY_OBJECT
  5
2063
102
{ACAD_REACTORS
330
2058
102
}
330
2058
100
AcDbProxyObject
 90
      499
 91
      508
 93
      412
310
40D11A5B50B409028333333333333E3BF0000000000000FB010790141107004050150841D405064090741402480A02677FFFFFD0
1001
ACAD
1000
AcDbSavedByObjectVersion
1070
     0
  0
ACAD_PROXY_OBJECT
  5
2067
102
{ACAD_REACTORS
330
2058
102
}
330
2058
100
AcDbProxyObject
 90
      499
 91
      508
 93
      444
310
42D19858D95C185D1D195C9B90F409028333333333333E3BF0000000000000FB010790141107004050150841D405064090741402480A0350
1001
ACAD
1000
AcDbSavedByObjectVersion
1070
     0
  0
ACAD_PROXY_OBJECT
  5
2059
102
{ACAD_REACTORS
330
2058
102
}
330
2058
100
AcDbProxyObject
 90
      499
 91
      508
 93
      388
310
41119B185D240901404333333333333E3BF0000000000000F9010740A41107004050150841D405064090741402480A1B50
1001
ACAD
1000
AcDbSavedByObjectVersion
1070
     0
  0
ACAD_PROXY_OBJECT
  5
205A
102
{ACAD_REACTORS
330
2058
102
}
330
2058
100
AcDbProxyObject
 90
      499
 91
      508
 93
      476
310
43519B185D15DA5D1A115919D95CD0140901404333333333333E3BF0000000000000F9010740901411070040501600405405064090741402480A1B50
1001
ACAD
1000
AcDbSavedByObjectVersion
1070
     0
  0
ACAD_PROXY_OBJECT
  5
205B
102
{ACAD_REACTORS
330
2058
102
}
330
2058
100
AcDbProxyObject
 90
      499
 91
      508
 93
      412
310
41D1DBDD5C985D5910240902404333333333333E3BF0000000000000F9010740A411070040501641D405064090741402480A1B50
1001
ACAD
1000
AcDbSavedByObjectVersion
1070
     0
  0
ACAD_PROXY_OBJECT
  5
205C
102
{ACAD_REACTORS
330
2058
102
}
330
2058
100
AcDbProxyObject
 90
      499
 91
      508
 93
      500
310
4411DBDD5C985D5915DA5D1A115919D95CD0340902404333333333333E3BF0000000000000F9010740901411070040501600405405064090741402480A1B50
1001
ACAD
1000
AcDbSavedByObjectVersion
1070
     0
  0
ACAD_PROXY_OBJECT
  5
2066
102
{ACAD_REACTORS
330
2058
102
}
330
2058
100
AcDbProxyObject
 90
      499
 91
      508
 93
      444
310
42D31A5B995C185D1D195C9B90E409028333333333333E3BF0000000000000FB010790141107004050750841D405064090741402483A0350
1001
ACAD
1000
AcDbSavedByObjectVersion
1070
     0
  0
ACAD_PROXY_OBJECT
  5
2062
102
{ACAD_REACTORS
330
2058
102
}
330
2058
100
AcDbProxyObject
 90
      499
 91
      508
 93
      420
310
425499585B1A5CDD1A58D08409028333333333333E3BF0000000000000FB01079019070040501508421405064090741402480A1B40
1001
ACAD
1000
AcDbSavedByObjectVersion
1070
     0
  0
ACAD_PROXY_OBJECT
  5
2065
102
{ACAD_REACTORS
330
2058
102
}
330
2058
100
AcDbProxyObject
 90
      499
 91
      508
 93
      412
310
41D51A1A58DAD95B90D409028333333333333E3BF0000000000000FB010790141107004050150C41D405064090741402480A0350
1001
ACAD
1000
AcDbSavedByObjectVersion
1070
     0
  0
XRECORD
  5
4BFA
102
{ACAD_REACTORS
330
4BF1
102
}
330
4BF1
100
AcDbXrecord
 90
        0
  0
XRECORD
  5
4C13
102
{ACAD_REACTORS
330
4BF1
102
}
330
4BF1
100
AcDbXrecord
340
2069
  0
XRECORD
  5
4C10
102
{ACAD_REACTORS
330
4BF1
102
}
330
4BF1
100
AcDbXrecord
1000
DSTYLE
1002
{
1070
    41
 40
0.125
1070
   343
340
55
1070
   344
340
55
1070
   141
 40
0.0625
1070
    46
 40
0.0625
1070
    43
 40
0.0625
1070
    44
 40
0.0625
1070
   147
 40
0.0625
1070
   277
 70
     4
1070
   173
 70
     1
1070
    40
 40
4.0
1070
    77
 70
     1
1070
    73
 70
     0
1070
   279
 70
     2
1070
    74
 70
     0
1070
   340
340
5E
1070
   140
 40
0.09375
1070
    78
 70
     3
1002
}
  0
XRECORD
  5
4BFB
102
{ACAD_REACTORS
330
4BF1
102
}
330
4BF1
100
AcDbXrecord
  1
{FE848CDE-04E3-4546-9EE7-23DCF3942B06}
  0
XRECORD
  5
4BF4
102
{ACAD_REACTORS
330
4BF1
102
}
330
4BF1
100
AcDbXrecord
  1

  0
XRECORD
  5
4BF9
102
{ACAD_REACTORS
330
4BF1
102
}
330
4BF1
100
AcDbXrecord
 90
        1
  0
XRECORD
  5
4BF6
102
{ACAD_REACTORS
330
4BF1
102
}
330
4BF1
100
AcDbXrecord
340
B15
  0
XRECORD
  5
4BF8
102
{ACAD_REACTORS
330
4BF1
102
}
330
4BF1
100
AcDbXrecord
 90
    10781
  0
XRECORD
  5
4C14
102
{ACAD_REACTORS
330
4BF1
102
}
330
4BF1
100
AcDbXrecord
340
203F
  0
XRECORD
  5
4BF7
102
{ACAD_REACTORS
330
4BF1
102
}
330
4BF1
100
AcDbXrecord
340
B16
  0
XRECORD
  5
4BFD
102
{ACAD_REACTORS
330
4BF1
102
}
330
4BF1
100
AcDbXrecord
 40
0.0
  0
XRECORD
  5
4C00
102
{ACAD_REACTORS
330
4BF1
102
}
330
4BF1
100
AcDbXrecord
340
0
  0
XRECORD
  5
4C06
102
{ACAD_REACTORS
330
4BF1
102
}
330
4BF1
100
AcDbXrecord
 10
0.0
 20
0.0
 30
0.0
  0
XRECORD
  5
4C02
102
{ACAD_REACTORS
330
4BF1
102
}
330
4BF1
100
AcDbXrecord
 10
0.0
 20
0.0
 30
0.0
  0
XRECORD
  5
4C05
102
{ACAD_REACTORS
330
4BF1
102
}
330
4BF1
100
AcDbXrecord
 10
0.0
 20
0.0
 30
0.0
  0
XRECORD
  5
4C03
102
{ACAD_REACTORS
330
4BF1
102
}
330
4BF1
100
AcDbXrecord
 10
0.0
 20
0.0
 30
0.0
  0
XRECORD
  5
4C04
102
{ACAD_REACTORS
330
4BF1
102
}
330
4BF1
100
AcDbXrecord
 10
0.0
 20
0.0
 30
0.0
  0
XRECORD
  5
4C01
102
{ACAD_REACTORS
330
4BF1
102
}
330
4BF1
100
AcDbXrecord
 10
0.0
 20
0.0
 30
0.0
  0
XRECORD
  5
4BFE
102
{ACAD_REACTORS
330
4BF1
102
}
330
4BF1
100
AcDbXrecord
340
0
  0
XRECORD
  5
4BFF
102
{ACAD_REACTORS
330
4BF1
102
}
330
4BF1
100
AcDbXrecord
 70
     0
  0
XRECORD
  5
4BF5
102
{ACAD_REACTORS
330
4BF1
102
}
330
4BF1
100
AcDbXrecord
  1

  0
XRECORD
  5
4BF2
102
{ACAD_REACTORS
330
4BF1
102
}
330
4BF1
100
AcDbXrecord
 90
        1
  0
XRECORD
  5
4BF3
102
{ACAD_REACTORS
330
4BF1
102
}
330
4BF1
100
AcDbXrecord
 90
       70
  0
XRECORD
  5
4C09
102
{ACAD_REACTORS
330
4BF1
102
}
330
4BF1
100
AcDbXrecord
340
0
  0
XRECORD
  5
4C0F
102
{ACAD_REACTORS
330
4BF1
102
}
330
4BF1
100
AcDbXrecord
 10
0.0
 20
0.0
 30
0.0
  0
XRECORD
  5
4C0B
102
{ACAD_REACTORS
330
4BF1
102
}
330
4BF1
100
AcDbXrecord
 10
0.0
 20
0.0
 30
0.0
  0
XRECORD
  5
4C0E
102
{ACAD_REACTORS
330
4BF1
102
}
330
4BF1
100
AcDbXrecord
 10
0.0
 20
0.0
 30
0.0
  0
XRECORD
  5
4C0C
102
{ACAD_REACTORS
330
4BF1
102
}
330
4BF1
100
AcDbXrecord
 10
0.0
 20
0.0
 30
0.0
  0
XRECORD
  5
4C0D
102
{ACAD_REACTORS
330
4BF1
102
}
330
4BF1
100
AcDbXrecord
 10
0.0
 20
0.0
 30
0.0
  0
XRECORD
  5
4C0A
102
{ACAD_REACTORS
330
4BF1
102
}
330
4BF1
100
AcDbXrecord
 10
0.0
 20
0.0
 30
0.0
  0
XRECORD
  5
4C07
102
{ACAD_REACTORS
330
4BF1
102
}
330
4BF1
100
AcDbXrecord
340
0
  0
XRECORD
  5
4C08
102
{ACAD_REACTORS
330
4BF1
102
}
330
4BF1
100
AcDbXrecord
 70
     0
  0
XRECORD
  5
4BFC
102
{ACAD_REACTORS
330
4BF1
102
}
330
4BF1
100
AcDbXrecord
  1
{9A1673CF-1FE1-459A-8E6F-535A534A49C2}
  0
DICTIONARYVAR
  5
4C12
102
{ACAD_REACTORS
330
B76
102
}
330
B76
100
DictionaryVariables
280
     0
  1
1:1
  0
DICTIONARYVAR
  5
209E
102
{ACAD_REACTORS
330
B76
102
}
330
B76
100
DictionaryVariables
280
     0
  1
Standard
  0
DICTIONARYVAR
  5
B77
102
{ACAD_REACTORS
330
B76
102
}
330
B76
100
DictionaryVariables
280
     0
  1
1
  0
DICTIONARYVAR
  5
4BAB
102
{ACAD_REACTORS
330
B76
102
}
330
B76
100
DictionaryVariables
280
     0
  1
1
  0
DICTIONARYVAR
  5
226D
102
{ACAD_REACTORS
330
B76
102
}
330
B76
100
DictionaryVariables
280
     0
  1
0
  0
DICTIONARYVAR
  5
20A2
102
{ACAD_REACTORS
330
B76
102
}
330
B76
100
DictionaryVariables
280
     0
  1
0
  0
DICTIONARYVAR
  5
20A1
102
{ACAD_REACTORS
330
B76
102
}
330
B76
100
DictionaryVariables
280
     0
  1
0
  0
DICTIONARYVAR
  5
209F
102
{ACAD_REACTORS
330
B76
102
}
330
B76
100
DictionaryVariables
280
     0
  1
0
  0
DICTIONARYVAR
  5
226C
102
{ACAD_REACTORS
330
B76
102
}
330
B76
100
DictionaryVariables
280
     0
  1
127
  0
XRECORD
  5
986
102
{ACAD_REACTORS
330
102
102
}
330
102
100
AcDbXrecord
330
0
330
0
330
0
330
0
330
0
330
0
330
0
330
0
330
0
330
0
330
0
330
0
330
0
330
0
330
0
330
0
330
0
330
0
330
0
330
0
330
0
330
0
330
0
330
0
330
0
330
0
330
0
330
0
330
0
330
0
330
0
330
0
330
0
330
0
330
0
330
0
330
0
330
0
330
0
330
0
330
0
330
0
330
0
330
0
330
0
330
0
330
0
330
0
330
0
330
0
330
0
330
0
330
0
330
0
330
0
330
0
330
0
330
0
330
0
330
0
330
0
330
0
330
0
330
0
330
0
330
0
330
0
330
0
330
0
330
0
330
0
330
0
330
0
330
0
330
0
330
0
330
0
330
0
330
0
330
0
330
0
330
0
330
0
330
0
330
0
330
0
330
0
330
0
330
0
330
0
330
0
330
0
330
0
330
0
330
0
330
0
330
0
330
0
330
0
330
0
330
0
330
0
330
0
330
0
330
0
330
0
330
0
330
0
330
0
330
0
330
0
330
0
330
0
330
0
330
0
330
0
330
0
330
0
330
0
330
0
330
0
330
0
330
0
330
0
330
0
330
0
330
0
330
0
330
0
330
0
330
0
330
0
330
0
330
0
330
0
330
0
330
0
330
0
330
0
330
0
330
0
330
0
330
0
330
0
330
0
330
0
330
0
330
0
330
0
330
0
330
0
330
0
330
0
330
0
330
0
330
0
330
0
330
0
330
0
330
0
330
0
330
0
330
0
330
0
330
0
330
0
330
0
330
0
330
0
330
0
330
0
330
0
330
0
330
0
330
0
  0
XRECORD
  5
987
102
{ACAD_REACTORS
330
102
102
}
330
102
100
AcDbXrecord
330
0
  0
XRECORD
  5
B10
102
{ACAD_REACTORS
330
21A
102
}
330
21A
100
AcDbXrecord
 40
0.0354262730106711
  0
ACAD_PROXY_OBJECT
  5
4B18
102
{ACAD_REACTORS
330
156B
102
}
102
{ACAD_XDICTIONARY
360
4B19
102
}
330
156B
100
AcDbProxyObject
 90
      499
 91
      501
 93
     3874
310
3800400016C005C080000B404000078880400B804040078C12804D0F8000000000001680020000000F8000C01C807F7FD2C04500000000000000004001C00790DBDB1BDC97CCD2804CCF8000000000001680020000000F8001801C807F7FD2C04500000000000000004001C00790DBDB1BDC97CD92804C8F80000000000016
310
80028000000F8002001C807F7FD2C04500000000000000004001C00790DBDB1BDC97CE1280670AC000000000001680028000000F8000401C807F7FD2C04500000000000000004001C00790DBDB1BDC97CC52806D890000000000001680020000000F8000401C807F7FD2C04500000000000000004001C00790DBDB1BDC97CC
310
528048428000000000001680028000000F8000C01C807F7FD2C04500000000000000004001C00790DBDB1BDC97CCD2804E400000000000001680020000000F8000401C807F7FD2C04500000000000000004001C00790DBDB1BDC97CC52804AC00000000000001680028000000F8001001C807F7FD2C0450000000000000000
310
4001C00790DBDB1BDC97CD128049800000000000001680000000000F8001C01C807F7FD2C04500000000000000004001C00790DBDB1BDC97CDD28043800000000000001680020000000F8001C01C807F7FD2C04500000000000000004001C00790DBDB1BDC97CDC0
  0
DICTIONARY
  5
4C18
330
2048
100
AcDbDictionary
280
     1
  3
ACAD_XREC_ROUNDTRIP
360
4C19
  0
DICTIONARY
  5
4C1A
330
2040
100
AcDbDictionary
280
     1
  3
ACAD_XREC_ROUNDTRIP
360
4C1B
  0
DICTIONARY
  5
4C1C
330
2050
100
AcDbDictionary
280
     1
  3
ACAD_XREC_ROUNDTRIP
360
4C1D
  0
DICTIONARY
  5
4B19
330
4B18
100
AcDbDictionary
280
     1
  3
ACADLAYERSTATEANNOSCALE
360
4B1A
  0
XRECORD
  5
4C19
102
{ACAD_REACTORS
330
4C18
102
}
330
4C18
100
AcDbXrecord
102
MATERIAL
148
0.0
149
0.0
149
0.0
 93
        0
 94
      127
282
     0
 72
     0
 77
     0
171
     0
175
     0
179
     0
273
     0
  0
XRECORD
  5
4C1B
102
{ACAD_REACTORS
330
4C1A
102
}
330
4C1A
100
AcDbXrecord
102
MATERIAL
148
0.0
149
0.0
149
0.0
 93
        0
 94
      127
282
     0
 72
     0
 77
     0
171
     0
175
     0
179
     0
273
     0
  0
XRECORD
  5
4C1D
102
{ACAD_REACTORS
330
4C1C
102
}
330
4C1C
100
AcDbXrecord
102
MATERIAL
148
0.0
149
0.0
149
0.0
 93
        0
 94
      127
282
     0
 72
     0
 77
     0
171
     0
175
     0
179
     0
273
     0
  0
XRECORD
  5
4B1A
102
{ACAD_REACTORS
330
4B19
102
}
330
4B19
100
AcDbXrecord
330
206D
  0
ENDSEC
  0
EOF
